Nicolo Paganini - Caprice 1 Chords & Tabs

 

Caprice 1 Chords & Tabs

Nicolo Paganini Chords & Tabs

Version: 1 Type: Tab 0 ratings
1 star 2 stars 3 stars 4 stars 5 stars
comments

Caprice 1 Tab

From: letostak@netcom.com (Judy Letostak)

Nicolo Paganini
Caprice No.1 Opus 1
letostak@netcom.com
This is a pretty good arpeggio excersize...Played at warp speed...Good
Luck with this one.


|----------12-12----------------------------------|----------12-12----------
|-------12-------12----------------19-19----------|-------12-------12-------
|----12-------------12----------16-------16-------|----12-------------12----
|-14-------------------14----16-------------16----|-14-------------------14-
|-------------------------17-------------------17-|-------------------------
|-------------------------------------------------|-------------------------

[ Tab from: http://www.guitartabs.cc/tabs/n/nicolo_paganini/caprice_1_tab.html ]
-------------19-19--------------|----------12-12----------------------------
----------19-------19-----------|-------12-------12----------------17-17----
-------19-------------19--------|----12-------------12----------16-------16-
----16-------------------16-----|-14-------------------14----16-------------
-14-------------------------14--|-------------------------17----------------
--------------------------------|-------------------------------------------


--------|----------12-12----------------------19-19--------------||
--------|-------12-------12----------------19-------19-----------||
--------|----12-------------12----------19-------------19--------||
-16-----|-14-------------------14----16-------------------16-----||
----17--|-------------------------14-------------------------14--||
--------|--------------------------------------------------------||
Comments