Nicki Minaj - Moment 4 Life Chords & Tabs

 

Nicki Minaj Chords & Tabs

Version: 4 Type: Tab 0 ratings
1 star 2 stars 3 stars 4 stars 5 stars
comments

Moment 4 Life Tab

   
 -------------------------------------------------------------------------------
			     MOMENT 4 LIFE - Nicki Minaj
-------------------------------------------------------------------------------
Tabbed by: Alex
Email: alex_r_is@hotmail.co.uk

Tuning: Standard

This is the riff played throughout the song
[ Tab from: http://www.guitartabs.cc/tabs/n/nicki_minaj/moment_4_life_tab_ver_4.html ]
e|-------------------------------------------------------------------------|
B|----------------4-----------------------------7-----------------4--------|
G|----------4--------------------------6--------------------------4--------|
D|------6----------------------8----------------------------------6--------
A|-------------------------------------------------------------------------|
E|-------------------------------------------------------------------------|



e|-------------------------------------------------------------------------|
B|-----------4--------------------4----------------2-----------------------|
G|----6------4-------------6------4----------------3-----------------------|
D|-----------6--------------------6----------------4-----------------------|
A|-------------------------------------------------------------------------|
E|-------------------------------------------------------------------------|

and also these chords can be played throughout but sound best during the chorus, 
listen to the song to get the rhythm:

G#m - F# - E - F#

Thanks and e-mail me any corrections
Comments