Nickelback - Worthy To Say Chords & Tabs

 

Worthy To Say Chords & Tabs

Nickelback Chords & Tabs

Version: 2 Type: Tab 0 ratings
1 star 2 stars 3 stars 4 stars 5 stars
comments

Worthy To Say Tab

   
Band: Nickelback
Song: Worthy to say
Tabbed by: Jon Luyckx (http://twofold.tsx.org)

Here is a kick-ass song by Nickelback.  It's a little Diddy about weed... hehehe


chords used:
E - x799xx
G - 355XXX
A - 577xxx
C - x355xx
D - x577xx

verse:

E|--------------------
B|--------------------
G|------------------12
D|----11-------11-----
A|-0-------0-0----0---	<- dud A string
E|--------------------

lead:

E|-----------------------------------
B|-----------------------------12h14~
G|-12h14p12h14---14h16p14h16---------
D|-----------------------------------
A|-----------------------------------
E|-----------------------------------

chorus:
[ Tab from: http://www.guitartabs.cc/tabs/n/nickelback/worthy_to_say_tab_ver_2.html ]
   C	     D	  A	   C A
E|----------------------------------
B|----------------------------------
G|-5---5---7-7-7-7---------5--------
D|-5---5---7-7-7-7--7---7--5-7-7-7-7
A|-3---3---5-5-5-5--7---7--3-7-7-7-7
E|------------------5---5----5-5-5-5

   ^play 2X
    then play: C	   D     C	   D	   C	   D	   A

bridge:

   A			  E  C   G		        D  C
E|-----------------------|----------------------
B|-----------------------|----------------------
G|------------------9--5-|------------------7--5
D|-7-7-7-7-7-7-7-7--9--5-|-5-5-5-5-5-5-5-5--7--5
A|-7-7-7-7-7-7-7-7--7--3-|-5-5-5-5-5-5-5-5--5--3
E|-5-5-5-5-5-5-5-5-------|-3-3-3-3-3-3-3-3------

   ^ play 3X then play     ^ once

outro:

   A			  D  C   G			  D  C
E|-----------------------|----------------------
B|-----------------------|----------------------
G|------------------7--5-|------------------7--5
D|-7-7-7-7----------7--5-|-5-5-5-5-5-5-5-5--7--5
A|-7-7-7-7--3b---0--5--3-|-5-5-5-5-5-5-5-5--5--3
E|-5-5-5-5---------------|-3-3-3-3-3-3-3-3------

   ^ play 3X then play	   ^ once
Comments