Nickelback - Where Chords & Tabs

 

Where Chords & Tabs

Nickelback Chords & Tabs

Version: 3 Type: Tab 0 ratings
1 star 2 stars 3 stars 4 stars 5 stars
comments

Where Tab

Artist:Nickelback
Song Name:Where
Tuning:Drop D
Tabbed By:Pillie (pillie2001@hotmail.com)

Riff 1
e:-----------------:-----------------:-----------------:-----------------:
b:-3---------------:--------------3-3:-3---------------:-----------------:
g:-2---------------:--------------2-2:-2---------------:-----------------:
d:-0---------------:--------------0-0:-0---------------:-----------------:
a:-----------------:-----------------:-----------------:-----------------:
d:-----------------:-----------------:-----------------:-----------------:

Riff 2
e:-----------------:-----------------:-----------------:-----------------:
b:-3------------3-3:-3------------3-3:-3------------3-3:-3---------------:
g:-2------------2-2:-2------------2-2:-2------------2-2:-2---------------:
d:-0------------0-0:-0------------0-0:-0------------0-0:-0---------------:
a:-----------------:-----------------:-----------------:-----------------:
d:-----------------:-----------------:-----------------:-----------------:

Riff 3
e:---------------------------------:---------------------------------:
b:---------------------------------:---------------------------------:
g:---------------------------------:---------------------------------:
d:-0-----x-x-x-0---x-x-0---0---x-x-:-0-----x-x-x-0---x-x-0---0---x-x-:
a:-0-----x-x-x-0---x-x-0---0---x-x-:-0-----x-x-x-0---x-x-0---0---x-x-:
d:-0-----x-x-x-0---x-x-0---0---x-x-:-0-----x-x-x-0---x-x-0---0---x-x-:

Fill 1
e:-----------------:
b:-----------------:
g:-----------------:
d:-0---------------:
a:-0---------------:
d:-0---------------:

Riff 4
e:-----------------:------------------:-----------------:------------------:
b:-----------------:------------------:-----------------:------------------:
g:-----------------:------------------:-5-5-5-5-5-5-5-5-:------------------:
d:-0-0-0-0-0-0-0-0-:-3-xx-3-3-3-3-3-3-:-5-5-5-5-5-5-5-5-:-0-xx-0-0-0-0-0-0-:
a:-0-0-0-0-0-0-0-0-:-3-xx-3-3-3-3-3-3-:-3-3-3-3-3-3-3-3-:-0-xx-0-0-0-0-0-0-:
d:-0-0-0-0-0-0-0-0-:-3-xx-3-3-3-3-3-3-:-----------------:-0-xx-0-0-0-0-0-0-:

Riff 5
e:-----------------:-----------------:-----------------:-----------------:
b:-----------------:-----------------:-----------------:-----------------:
g:-----------------:-5-5-5-5-5-5-5-5-:-----------------:-----------------:
d:-3-3-3-3-3-3-3-3-:-5-5-5-5-5-5-5-5-:-0---------0-----:-0---------0-----:
a:-3-3-3-3-3-3-3-3-:-3-3-3-3-3-3-3-3-:-0---------0-----:-0---------0-----:
d:-3-3-3-3-3-3-3-3-:-----------------:-0-x-x-x-x-0-----:-0-x-x-x-x-0-----:
[ Tab from: http://www.guitartabs.cc/tabs/n/nickelback/where_tab_ver_3.html ]
Riff 6
e:-----------------:-----------------:-----------------:-----------------:
b:-----------------:-----------------:-----------------:-----------------:
g:-----------------:-5-5-5-5-5-5-5-5-:-----------------:-----------------:
d:-3-3-3-3-3-3-3-3-:-5-5-5-5-5-5-5-5-:-5-5-5-5-7-7-7-7-:-8-8-8-8-8-8-8-8-:
a:-3-3-3-3-3-3-3-3-:-3-3-3-3-3-3-3-3-:-5-5-5-5-7-7-7-7-:-8-8-8-8-8-8-8-8-:
d:-3-3-3-3-3-3-3-3-:-----------------:-5-5-5-5-7-7-7-7-:-8-8-8-8-8-8-8-8-:


e:-----------------:-----------------:
b:-----------------:-----------------:
g:-----------------:-----------------:
d:-8-8-x-8---------:-10--------------:
a:-8-8-x-8---------:-10--------------:
d:-8-8-x-8---------:-10--------------:

Riff 7
e:---------------------------------:---------------------------------:
b:---------------------------------:---------------------------------:
g:---------------------------------:---------------------------------:
d:-0-----x-------------------------:-0-----------------------3---0---:
a:-0-----x-x-x-3h5---x-3h5---0h3h5-:-0---------x-3h5---x---x-3---0---:
d:-0-----x-x-x-3h5---x-3h5---0h3h5-:-0---------x-3h5---x---x-3---0---:


SOLO (over riff 4)

-------------------------10-12-12-9-9h10p9-----------------------------------|
------------10~~----10-12-----------------10-13-11-10-11-10--10--------------|
----7/9-9h11------11---------------------------------------12--12-10-12-10-9-|
-7h9-------------------------------------------------------------------------|
-----------------------------------------------------------------------------|
-----------------------------------------------------------------------------|

-------------------------10-12-12-9-9b10r9--9b10r9--9b10r9--9b10r9--9b10r9---|
------------10------10-12-----------------10------10------10------10---------|
----7/9-9h11------11---------------------------------------------------------|
-7h9-------------------------------------------------------------------------|
-----------------------------------------------------------------------------|
-----------------------------------------------------------------------------|

-------------------------10-12-12-9-9h10p9-----------------------------------|
------------10~~----10-12-----------------10-13-11-10-11-10--10--------------|
----7/9-9h11------11---------------------------------------12--12-10-12-10-9-|
-7h9-------------------------------------------------------------------------|
-----------------------------------------------------------------------------|
-----------------------------------------------------------------------------|

------------------------10-12-12-14-14b15r14--14b15r14--14b15r14--14b15r14--14b15r14-|
------------10-----10-12--------------------15--------15--------15--------15---------|
----7/9-9h11-----11------------------------------------------------------------------|
-7h9---------------------------------------------------------------------------------|
-------------------------------------------------------------------------------------|
-------------------------------------------------------------------------------------|

Riff 1 * 1
Riff 2 * 4
Riff 3 * 2
Fill 1 * 1

Riff 4 * 2
Riff 5 * 2
Riff 6 * 1

Riff 2 * 2
SOLO - Riff 4 * 2
Riff 7 * 4

Riff 4 * 2
Riff 5 * 2
Riff 6 * 1

Riff 2 * 1.5
Comments