Nickelback - Where Do I Hide Chords & Tabs

 

Where Do I Hide Chords & Tabs

Nickelback Chords & Tabs

Version: 8 Type: Tab 0 ratings
1 star 2 stars 3 stars 4 stars 5 stars
comments

Where Do I Hide Tab

Standerd Tunning (EADGBe)
Artist: Nickelback
Title: Where Do I Hide
Album: Silver Side Up
Transcribed by: Dean Parke

Standerd Tunning (EADGBe)

b - bend
/ - slide up
\ - slide down
PM - Palm Mute
(#) - optional note

Intro
e|--------------------------------------------|-------------------------------|
B|--------------------------------------------|-------------------------------|
G|--------------------------------------------|-------------------------------|
D|--------------------------------------------|----------------------77-77--7-|
A|-------------5--5--5-xx--/7--5-7b-7--5------|-----------5--5--5----77-77--7-|
E|---/7--7-5-7----------------------------7-7-|-/7--7-5-7---------xx-55-55--5-|

Chorus x2 (no vocals)
e|---------------------------------------------------------------------------|
B|---------------------------------------------------------------------------|
G|---4--4-4---2--2--2-xx---9--7/11-9--7---4----------------------------------|
D|---4--4-4---2--2--2-xx---9--7/11-9--7---4----------------------------------|
A|---2--2-2---0--0--0-xx---7--5/9--7--5---2----------------------------------|
E|---------------------------------------------------------------------------|

If you dont think the Verse sounds right.... Do it yourself

Verse (over & over)
e|-------------------|
B|-------------------|
G|-------------------|
D|---4-----------(4)-|
A|---2-0-2-5-2-0-2---|
E|-------------------|

Verse Fills (figure out where they go your self)
e|----------|-----|-----------------|------------|---------|
B|----------|-----|-----------------|------------|---------|
G|--4-4--4--|--7--|-----------------|--4-4--4-4--|--7\2--7-|
D|--4-4--4--|--7--|--4-4-4-4-4-4-4--|--4-4--4-4--|--7\2--7-|
A|--2-2--2--|--5--|--2-2-2-2-2-2-2--|--2-2--2-2--|--5\0--5-|
E|----------|-----|-----------------|------------|---------|
                   PM |-------------|

Chorus x2


Verse (over & over)


Chorus x4


Bridge x2
e|----------------------------------|
B|----------------------------------|
G|----------------------------------|
D|------------------------------4---|
A|---2-5---2-5---2-5---2-5---0--2---|
E|----------------------------------|
 PM |---------------------|



Intro x1


[ Tab from: http://www.guitartabs.cc/tabs/n/nickelback/where_do_i_hide_tab_ver_8.html ]
Solo 
e|---------------------------------------------------------------------------|
B|---------------------------------------------------------------------------|
G|-----------7--9---7-9b--9-7-9-7---7--------------------------------7-------|
D|----/7--9----------------------------9---7---------------------7-9---9-9---|
A|-------------------------------------------9-8-7---------7-8-9-------------|
E|-------------------------------------------------10-7-10-------------------|

e|---------------------------------------------------10----10----------------|
B|----------------------10------10----10----10-10/12----12----12-------------|
G|---7--------7-----/11-----/11----11----11----------------------------------|
D|-----9-7-9-----------------------------------------------------------------|
A|---------------------------------------------------------------------------|
E|---------------------------------------------------------------------------|

e|---10-12-12-10-12--12/14-10------------------------------------------------|
B|------------------------------7h10p7---7-----------------------------------|
G|-------------------------------------9---9-7-----9-7-----9-7---9-7---------|
D|---------------------------------------------9-7-----9-x-----9-----9-------|
A|---------------------------------------------------------------------------|
E|---------------------------------------------------------------------------|

e|---------------------------------------------------------------------------|
B|------------------------9\-------------------------------------------------|
G|---9--7-----------------9\-------------------------------------------------|
D|--------9-7----------------------------------------------------------------|
A|------------9-8-7----------------------------------------------------------|
E|------------------10-7-----------------------------------------------------|

Now if you wanna play your own solo just play around with the notes in this scale

Solo Scale
e|---7-------------10--12----------------------------------------------------|
B|---7-------------10--12----------------------------------------------------|
G|---7-------9--10---11------------------------------------------------------|
D|---7-------9---------------------------------------------------------------|
A|---7---8---9---------------------------------------------------------------|
E|---7----------10-----------------------------------------------------------|

Other notes can be added   eg.14 can be played on the e strings


Verse (no guitar till "lookin for a scapegoat")


Chorus x4


Outro (only difference is 5 instead of 2
e|---------------------------------------------------------------------------|
B|---------------------------------------------------------------------------|
G|---7--7-7---2--2--2-xx---9--7/11--9--7-4-4---------------------------------|
D|---7--7-7---2--2--2-xx---9--7/11--9--7-4-4---------------------------------|
A|---5--5-5---0--0--0-xx---7--5/9---7--5-2-2---------------------------------|
E|---------------------------------------------------------------------------|


So there it is, if you find a few mistakes its cuz i made a typeo so enjoy
Comments