Nickelback - Where Do I Hide Chords & Tabs

 

Where Do I Hide Chords & Tabs

Nickelback Chords & Tabs

Version: 7 Type: Tab 0 ratings
1 star 2 stars 3 stars 4 stars 5 stars
comments

Where Do I Hide Tab

   
|START|

Artist  	-	Nickelback - www.nickelback.com
Song		-	Where Do I Hide
Album		-	Silver Side Up
Transcribed By	-	Neo (neo.tech@c2i.net)
Tuning		-	Standard (E,A,D,G,B,E) - Play with distortion.
Version		-	1.9


Hi, as you can see I am back with another transcription. This is my fifth one and 
I am hopefully getting better at it. If you find something to be wrong or just want
to give me a hint on how to write better transcriptions send me a mail. 
All corrections are welcome.

I found many transcriptions of this song in the tab archives but not one sounded
correct to me, so I decided to write one myself. It's not 100% accurate but it 
sounds to be very close :)

Bye for now :)
Enjoy this GREAT song... Support the artist, buy their album!

- Neo

	

 \ = Slide Up
 / = Slide Down
 x = Scratch
 * = Mute

 INTRO

    E|------------------------------|-------------------------| 
    B|------------------------------|-------------------------| 
    G|---------77------7-97119-7----|---------777-------------| 
    D|--99\7/9-77-7\9/77-97119-799--|--99\7/9-777-77*-777*----| 
    A|--99\7/9-55-7\9/75-759-7-599--|--99\7/9-555-77*-777*----| 
    E|--77\5/7----5\7/5---------77--|--77\5/7-----55*-555*----| 

    E|----------------------|----------------------| 
    B|----------------------|----------------------| 
    G|----------x9711-97----|----------x9711-97----| 
    D|--999\777-x9711-9799--|--999\777-x9711-9799--| 
    A|--999\777-x759--7599--|--999\777-x759--7599--| 
    E|--777\555---------77--|--777\555---------77--| 


 MAIN RIFF

    E|-----------------------------------------------------------| 
    B|-----------------------------------------------------------| 
    G|--------------------------------------------------------7--| 
    D|--779\79129\79*-9\79129\79*-799-9\79129\79*-9\79129\79*-7--| 
    A|--779\79129\79*-9\79129\79*-799-9\79129\79*-9\79129\79*-5--| 
    E|--557\57107\57*-7\57107\57*-577-7\57107\57*-7\57107\57*----| 

	(Got a criminal record...)

    E|-----------------------------------------------------| 
    B|-----------------------------------------------------| 
    G|--------------------------------------------------7--| 
    D|--9\79129\79*-9\79129\79*-9\79129\79*-9\79129\79*-7--| 
    A|--9\79129\79*-9\79129\79*-9\79129\79*-9\79129\79*-5--| 
    E|--7\57107\57*-7\57107\57*-7\57107\57*-7\57107\57*----| 

	(Lookin' for a scapegoat...)

    E|-----------------------------------------------------------------------------| 
    B|-----------------------------------------------------------------------------| 
    G|--------------------------------------------------------------------------7--| 
    D|--9\79129\79*-99999999-9\79129\79*-99-99-9\79129\79*-99999999-9\79129\79*-7--| 
    A|--9\79129\79*-99999999-9\79129\79*-99-99-9\79129\79*-99999999-9\79129\79*-5--| 
    E|--7\57107\57*-77777777-7\57107\57*-77-77-7\57107\57*-77777777-7\57107\57*----| 


 CHORUS 

	(I still hear him screaming "where do I hide?"...)

    E|----------------------|----------------------| 
    B|----------------------|----------------------| 
    G|----------x9711-97----|----------x9711-97----| 
    D|--999\777-x9711-9799--|--999\777-x9711-9799--| 
    A|--999\777-x759--7599--|--999\777-x759--7599--| 
    E|--777\555---------77--|--777\555---------77--| 


 MAIN RIFF

    E|-----------------------------------------------------------| 
    B|-----------------------------------------------------------| 
    G|--------------------------------------------------------7--| 
    D|--779\79129\79*-9\79129\79*-799-9\79129\79*-9\79129\79*-7--| 
    A|--779\79129\79*-9\79129\79*-799-9\79129\79*-9\79129\79*-5--| 
    E|--557\57107\57*-7\57107\57*-577-7\57107\57*-7\57107\57*----| 

	(He said, she said...)

    E|-----------------------------------------------------| 
    B|-----------------------------------------------------| 
    G|--------------------------------------------------7--| 
    D|--9\79129\79*-9\79129\79*-9\79129\79*-9\79129\79*-7--| 
    A|--9\79129\79*-9\79129\79*-9\79129\79*-9\79129\79*-5--| 
    E|--7\57107\57*-7\57107\57*-7\57107\57*-7\57107\57*----| 

	(Well I remember that summer...)
[ Tab from: http://www.guitartabs.cc/tabs/n/nickelback/where_do_i_hide_tab_ver_7.html ]
    E|-----------------------------------------------------------------------------| 
    B|-----------------------------------------------------------------------------| 
    G|--------------------------------------------------------------------------7--| 
    D|--9\79129\79*-99999999-9\79129\79*-99-99-9\79129\79*-99999999-9\79129\79*-7--| 
    A|--9\79129\79*-99999999-9\79129\79*-99-99-9\79129\79*-99999999-9\79129\79*-5--| 
    E|--7\57107\57*-77777777-7\57107\57*-77-77-7\57107\57*-77777777-7\57107\57*----| 


 CHORUS 

	(I still hear him screaming "where do I hide?"...)

    E|----------------------|----------------------| 
    B|----------------------|----------------------| 
    G|----------x9711-97----|----------x9711-97----| 
    D|--999\777-x9711-9799--|--999\777-x9711-9799--| 
    A|--999\777-x759--7599--|--999\777-x759--7599--| 
    E|--777\555---------77--|--777\555---------77--| 

	(A whole lot of memories... yours and not mine...)

    E|----------------------|----------------------| 
    B|----------------------|----------------------| 
    G|----------x9711-97----|----------x9711-97----| 
    D|--999\777-x9711-9799--|--999\777-x9711-9799--| 
    A|--999\777-x759--7599--|--999\777-x759--7599--| 
    E|--777\555---------77--|--777\555---------77--| 


 PRE SOLO

		!! NOT COVERED YET !!
	       ANYONE GOT IT, MAIL ME!

 SOLO

	GUITAR 1

		!! NOT COVERED YET !!
	       ANYONE GOT IT, MAIL ME!

	GUITAR 2

    E|----------------------|----------------------| 
    B|----------------------|----------------------| 
    G|----------x9711-97----|----------x9711-97----| 
    D|--999\777-x9711-9799--|--999\777-x9711-9799--| 
    A|--999\777-x759--7599--|--999\777-x759--7599--| 
    E|--777\555---------77--|--777\555---------77--| 

    E|----------------------|----------------------|-------------|
    B|----------------------|----------------------|-------------|
    G|----------x9711-97----|----------x9711-97----|----------7--|
    D|--999\777-x9711-9799--|--999\777-x9711-9799--|-9\79129\77--|
    A|--999\777-x759--7599--|--999\777-x759--7599--|-9\79129\75--|
    E|--777\555---------77--|--777\555---------77--|-7\57107\5---|

	(Got a criminal record...)


 POST SOLO

	(And you're last on mine...)

    E|-----------------------------------------------------------------------------| 
    B|-----------------------------------------------------------------------------| 
    G|--------------------------------------------------------------------------7--| 
    D|--9\79129\79*-99999999-9\79129\79*-99-99-9\79129\79*-99999999-9\79129\79*-7--| 
    A|--9\79129\79*-99999999-9\79129\79*-99-99-9\79129\79*-99999999-9\79129\79*-5--| 
    E|--7\57107\57*-77777777-7\57107\57*-77-77-7\57107\57*-77777777-7\57107\57*----| 


 CHORUS 

	(I still hear him screaming "where do I hide?"...)

    E|----------------------|----------------------| 
    B|----------------------|----------------------| 
    G|----------x9711-97----|----------x9711-97----| 
    D|--999\777-x9711-9799--|--999\777-x9711-9799--| 
    A|--999\777-x759--7599--|--999\777-x759--7599--| 
    E|--777\555---------77--|--777\555---------77--| 

	(A whole lot of memories... yours and not mine...)

    E|----------------------|----------------------| 
    B|----------------------|----------------------| 
    G|----------x9711-97----|----------x9711-97----| 
    D|--999\777-x9711-9799--|--999\777-x9711-9799--| 
    A|--999\777-x759--7599--|--999\777-x759--7599--| 
    E|--777\555---------77--|--777\555---------77--| 	


 OUTRO

		!! NOT COVERED YET !!
	       ANYONE GOT IT, MAIL ME!


--------
 LYRICS
--------

As usual, lyrics have been taken from Nickelback's official website, and therefore are most 
likely to be 100% correct.

	Got a criminal record
	I can't cross state lines
	First on the bad list
	And you're last on mine
	Lookin' for a scapegoat
	Long past due
	Walking down the aisle
	Staring straight at you
	I still hear him screaming "where do I hide?"
	And all he asks and I say "hurry inside"

	He said, she said... 
	No she don't
	Be back before morning
	And you know she won't
	Well I remember that summer
	Like yesterday
	And I remember his mother
	As he was dragged away

	I still hear him screaming "where do I hide?"
	And all he asks and I say "hurry inside"
	A whole lot of memories... yours and not mine
	And all he asks and I say "hurry inside"

	Got a criminal record
	I can't cross state lines
	First on the bad list
	And you're last on mine
	Lookin' for a scapegoat
	Long past due
	Walking down the aisle
	Staring straight at you

	I still hear him screaming "where do I hide?"
	And all he asks and I say "hurry inside"
	A whole lot of memories... yours and not mine
	And all he asks and I say "hurry inside, where do I hide?"


|END|
Comments