Nickelback - Where Do I Hide Chords & Tabs

 

Where Do I Hide Chords & Tabs

Nickelback Chords & Tabs

Version: 6 Type: Tab 0 ratings
1 star 2 stars 3 stars 4 stars 5 stars
comments

Where Do I Hide Tab

   
Nickleback- where do I hide
Tabbed By Dave Wachala csoul@mail.com

Standard tuning with Drop-D tuning

Intro:
----------------------------------------------------
----------------------------------------------------
----------------------------------------------------
----------------------------------------------------
--------------------I__PM__I-7-5-7/9-7-2-2--2-------
-9-9-7h9-9/12--12-12-0-1-2-3------------------------

----------------------------------------------------
----------------------------------------------------
----------------------------------------------------
-----------------------7-7---7-7--7-----------------
-----------------------7-7---7-7--7-----------------
-/9-9-7h9-9/12--12-12--7-7---7-7--7-----------------

Chorus Riff:
----------------------------------------------------
----------------------------------------------------
----------------------------------------------------
-9--9-9-7--7-7-7--2-0-0h2-2h4-2-0-0--0--------------
-9--9-9-7--7-7-7--2-0-0h2-2h4-2-0-0--0--------------
-9--9-9-7--7-7-7--2-0-0h2-2h4-2-0-0--0--------------

Verse:
----------------------------------------------------
----------------------------------------------------
----------------------------------------------------
----------------------------------------------------
-9-9-7-9-9-7-9-------------9-9-7-9-9-7-9------------
-9-9-7-9-9-7-9-------------9-9-7-9-9-7-9---2-2--2-2-

----------------------------------------------------
----------------------------------------------------
----------------------------------------------------
------------------------------------------------12--
-9-9-7-9-9-7-9-------------9-9-7-9-9-7-9--------12--
-9-9-7-9-9-7-9-------------9-9-7-9-9-7-9--------12--

Start singing
          Got a crimal...             Can't cross state line
----------------------------------------------------
----------------------------------------------------
----------------------------------------------------
----------------------------------------------------
-9-9-7-9-9-7-9-------------9-9-7-9-9-7-9------------
-9-9-7-9-9-7-9-------------9-9-7-9-9-7-9------------
         First on the bad list       your last on....
----------------------------------------------------
----------------------------------------------------
----------------------------------------------------
------------------------------------------------12--
-9-9-7-9-9-7-9-------------9-9-7-9-9-7-9--------12--
-9-9-7-9-9-7-9-------------9-9-7-9-9-7-9--------12--
           lookin for excape..          long past 2 
----------------------------------------------------
----------------------------------------------------
----------------------------------------------------
----------------------------------------------------
-9-9-7-9-9-7-9-x-x-x-x-x-x-9-9-7-9-9-7-9------------
-9-9-7-9-9-7-9-x-x-x-x-x-x-9-9-7-9-9-7-9---2-2--2-2-
          walkin down the....        starin' straigh at you.
----------------------------------------------------
----------------------------------------------------
----------------------------------------------------
--------------------------------------------------12
-9-9-7-9-9-7-9-x-x-x-x-x-x-9-9-7-9-9-7-9----------12
-9-9-7-9-9-7-9-x-x-x-x-x-x-9-9-7-9-9-7-9--9\-2----12

Bridge:
---------------------
---------------------
---------------------
-------------------9-X2 Then Play inrto 1 time
-I_______PM____I-7-9-
-9-7-9-7-9-7-9-7-7-9-
[ Tab from: http://www.guitartabs.cc/tabs/n/nickelback/where_do_i_hide_tab_ver_6.html ]
Solo:
Play chorus Riff behind this.
----------------------------------------------------
----------------------------------------------------
----------------------------------------------------
-7----/9~~~---12----/14~~~~12-14-14-12-14-12--------
----------------------------------------------------
----------------------------------------------------
With Wah
----------------------------------------------------
----------------------------------------------------
-------------------------2h3-/7-------7------7------
-12p0-9p0-7p0--2-1--0-2h3------9-7-9~~-9-7-9--------
-------------------2--------------------------------
----------------------------------------------------

----------------------------------------------------
-----------------------------------------15--15--15-
------14---------14--14-12-14-12-16p14-14--14--14---
-12/14------12/14-----------------------------------
---------xx-----------------------------------------
---------xx-----------------------------------------

----------------------------------------------------
-17-17--17-17--17-15-17-15-17/19-15-----------------
------------------------------------11-11h14p11-11--
----------------------------------------------------
----------------------------------------------------
----------------------------------------------------

----------------------------------------------------
----------------------------------------------------
-11-10-9------------9-------9-----------------------
--------12-9--12-9----12-9----12----14x-14x---------
--------------------------------12------------------
----------------------------------------------------

----------------------------------------------------
----------------------------------------------------
----------------------------------------------------
-14/16-12---12----12--------------------------------
---------14---14----14-12-14~~~---------------------
----------------------------------------------------

Outro:
Chorus
Then at the Very End He sings

A5(777xxx)        E5(222xxx)    end on a B5(999xxx)
Where     do    I  hide?
----------------------------------------------------
----------------------------------------------------
----------------------------------------------------
----------------------------------------------------
----------------------------------------------------
---------------------------/14-12-14-/16-14--9-9--9-

Lyrics:
Got a criminal record
I can't cross state lines
First on the bad list
And you're last on mine
Lookin' for a scapegoat
Long past due
Walking down the aisle
Staring straight at you
I still hear him screaming "where do I hide?"
And all he asks and I say "hurry inside"

He said, she said... 
No she don't
Be back before morning
And you know she won't
Well I remember that summer
Like yesterday
And I remember his mother
As he was dragged away

I still hear him screaming "where do I hide?"
And all he asks and I say "hurry inside"
A whole lot of memories... yours and not mine
And all he asks and I say "hurry inside"

Got a criminal record
I can't cross state lines
First on the bad list
And you're last on mine
Lookin' for a scapegoat
Long past due
Walking down the aisle
Staring straight at you

I still hear him screaming "where do I hide?"
And all he asks and I say "hurry inside"
A whole lot of memories... yours and not mine
And all he asks and I say "hurry inside, where do I hide?"
Comments