Nickelback - Where Do I Hide Chords & Tabs

 

Where Do I Hide Chords & Tabs

Nickelback Chords & Tabs

Version: 10 Type: Tab 0 ratings
1 star 2 stars 3 stars 4 stars 5 stars
comments

Where Do I Hide Tab

   
		     Where Do I Hide- Nickelback

Tabbed by: Maddy
Email: Maddysfreaking@emailaccount.com
Icq: 153017339

This is the EXACT tab.  You just need to listen to the song.
PRACTICE MAKES PERFECT!  This took me a really long time to write out for you,
so please take that into consideration before you/if you decide to critize.  Thanks!


Tuning:

Tune down 1 1/2 steps w/Drop-D tuning

Intro
(W/Distortion)

C#|---------------------------------------------------------------------------|
G#|---------------------------------------------------------------------------|
E |---------------------------------------------------------------------------|
B |---------------------------------------------------------------------------|
F#|--------------------------------------------------------------------------x|
B |/12---12--10-12/15---15---15-0-10-12--/17---15--17b--17----15--12---12--x--|

C#|---------------------------------------------------------------------------|
G#|---------------------------------------------------------------------------|
E |-------------------------------------------5-5------5-5-----5--------------|
B |-------------------------------------------5-5------5-5-----5--------------|
F#|-------------------------------------------3-3------3-3-----3--------------|
B |-12---12--10-12/15--15---15----15---0--0-----------------------------------|

(Band Enters)
C#|----------------------------------------------------------------------
G#|-3-----3--------------------------------------------------------------
E |-2-----2---------------5------------------------------------2--------- X2
B |-0-----0----5---5------5-------------/5---3-/6---5/3----0---0---------
F#|-----3----3-3---3------3----------------------------------------------
B |---------------------------x--x------/5---3-/6---5/3----0-------------

(P.M-------)
C#|---------------------------------------------------------------------------|
G#|---------------------------------------------------------------------------|
E |-2-------2-------------2------------2----------------2---------------------|
B |-0-------0--3---0------0------------0--------3p0-----0---------------------|
F#|------------3-------3-----------------------------3------------------------|
B |-----0-----------------------------------3p0---------------0---0-----0---0-|

C#|---------------------------------------------------------------------------|
G#|---------------------------------------------------------------6-----------|
E |-2---------------2---------2----------------------2------------5-----------|
B |-0------3p0------0---------0----------3p0---------0------------3-----------|
F#|--------------3------------------------------3-----------------3-----------|
B |----3p0-------------------------3p0----------------------------3-----------

Verse:

               "Got a criminal record.....  I can't cross state lines.."
C#|---------------------------------------------------------------------------
G#|---------------------------------------------------------------------------
E |--2---------------2----------------------2------------------2--------------
B |--0-------3p0-----0----------------------0--------3p0-------0--------------
F#|---------------3----------------------------------------3------------------
B |-----3p0-------------------------------------3p0---------------------------

(Guitar 2)
C# ----------------------------------
G#|-------------------10b------------
E |-10----------------10b------------
B |-----12--10---12------------------
F#|----------------------------------
B |----------------------------------



C#|---------------------------------------------------------------------------
G#|-----------------------------------------------------------------6---------
E |--2------------------2------------------2------------------------5---------
B |--0---------3p0------0------------------0----------3p0-----------3---------
F#|-------------------3--------------------------------------3------3---------
B |------3p0------------------------------------3p0-----------------3---------


           
C#|----------------------------------------------------------------------------
G#|----------------------------------------------------------------------------
E |--2-----------------2--------------------------2----------------2-----------
B |--0---------3p0-----0--------------------------0--------3p0-----0-----------
F#|-----------------3-------------------------------------------3--------------
B |-----3p0---------------0--0--0--0--0--0--0--0-----3p0--------------0-0--0-0-

C#|----------------------------------------------------------------------------
G#|--------------------------------------------------------------------------6-
E |-2--------------2----------------------2---------------2------------------5-
B |-0------3p0-----0----------------------0--------3p0----0------------------3-
F#|-------------3---------------------------------------3--------------------3-
B |----3p0------------0--0--0-0-0-0-0-0--------3p0---------------/17/-x--x---3-


(Chorus)

C#|-------------------------------------------------------------------------
G#|-3-------3-------------------------------------------------3-------------
E |-2-------2------------5------------------------------------2-------------
B |-0-------0-----5---5--5-------------/5----3-/6---5/3---0---0------------- X2
F#|------3------3-3---2--3--------------------------------------------------
B |---------------------------x--x-----/5----3-/6---5/3---0----------x--x---



C#|---------------------------------------------------------------------------
G#|---------------------------------------------------------------------------
E |-2-------------2---2--------------2---------------2--------------2---------
B |-0-------3p0---0---0-------3p0----0---------------0-------3p0----0---------
F#|-------------3------------------3------------------------------3-----------
B |----3p0----------------3p0-------------0--0-0-0-------3p0------------------

C#|-------------------------------
G#|------------------------6------
E |-2--------------2-------5------
B |-0------3p0-----0-------3------
F#|-------------3----------3------
B |----3p0-----------------3------

(Chorus again X2)


--(Interlude)
[ Tab from: http://www.guitartabs.cc/tabs/n/nickelback/where_do_i_hide_tab_ver_10.html ]
C#|---------------------------------------------------------------------------
G#|---------------------------------3------------------------------------3----
E |---------------------------------2------------------------------------2----
B |---------------------------------3p0----------------------------------3p0--
F#|---------------------------------------------------------------------------
B |--0--4p0--0--4p0--0--4p0--0--4p0-------0--4p0--0--4p0--0--4p0--0-4p0-------


C#|-----------------------------------------------------------------------------
G#|-----------------------------------------------------------------------------
E |-----------------------------------------------------------------------------
B |-----------------------------------------------------------------------------
F#|-----------------------------------------------------------------------------
B |-/12---12--10-12/15---15---15---0--10-12-/17---15--17b--17--15--12--12--x--x-

      "Mm..  Ah..!"
C#|-------------------
G#|-------------------
E |-------------------
B |-------------------
F#|---------x--x------
B |--3/12-------------



C#|---------------------------------------------------------------------------
G#|---------------------------------------------------------------------------
E |------------------------------------5-5----5-5------5----------------------
B |------------------------------------5-5----5-5------5----------------------
F#|------------------------------------3-3----3-3------3----------------------
B |-/12--12--10--12/15----15--15----0-----------------------------------------


(Solo)

C#|---------------------------------------------------------------------------
G#|---------------------------------------------------------------------------
E |----------------------10-------(10b)--12----10----12b-----12--10--12--10b--
B |-10-----(10b)-12-----------------------------------------------------------
F#|---------------------------------------------------------------------------
B |---------------------------------------------------------------------------


C#|---------------------------------------------------------------------------
G#|-3-----3--3--------------------------------------------------3-------------
E |-2-----2--2---5-------5--------------------------------------2-------------
B |-0-----0--0---5-------5---------------/5----3--/6---5/3---2--0-------------
F#|--------------3-------3-------------------------------------------x---x----
B |---------------------------x--x-------/5----3--/6---5/3---0----------------


C#|---------------------------------------------------------------------------|
G#|-------------------------------------------------------------------10------|
E |--10------------------------------------------------10-------------10------|
B |--------12-----10----------------------------10--12----12--10--12-----12---|
F#|------------------12-11--10/8--10-8----10/12-------------------------------|
B |---------------------------------------------------------------------------|


C#|-----------------------
G#|----------10b----------
E |-----------------------
B |--10--12---------------
F#|-----------------------
B |----------------------- 


C#|---------------------------------------------------------------------------|
G#|-3-----3------------------------------------------------------3------------|
E |-2-----2-----5---5-5-----5------------------------------------2------------|
B |-0-----0-----5---5-5-----5-----------/5----3--/6----5/3---2---0------------|
F#|-----3-----3-3---3-3-----3-----------------------------------------x---x---|
B |-----------------------------x---x---/5----3--/6----5/3---0----------------|


C#|----------------------------------------------13----13----13---------------|
G#|---------13----------------13----13----15--13----13----13----13------------|
E |--12/14--------------12/14----14----14-------------------------------------|
B |--------------x---x--------------------------------------------------------|
F#|---------------------------------------------------------------------------|
B |---------------------------------------------------------------------------|


C#|---15----15-15-15-13-15b---13/-------
G#|------13-----------------------------
E |-------------------------------------
B |-------------------------------------
F#|-------------------------------------
B |-------------------------------------


C#|---------------------------------------------------------------------------
G#|--3---3--3--------------------------------------------------3--------------
E |--2---2--2---5-------5--------------------------------------2--------------
B |--0---0--0---5-------5----------/5----3--/6---5/3---2-------0--------------
F#|-------------3-------3-------------------------------------------x--x------
B |-------------------------x--x---/5----3--/6---5/3---0----------------------

C#|---------------------------------------------------------------------------|
G#|-/x--10p13p10---10--10-----------------------------------------------------|
E |-----------------------13-12-10----10-----12-10----------------------------|
B |--------------------------------12----12--------12-------------------------|
F#|---------------------------------------------------------------------------|
B |---------------------------------------------------------------------------|

C#|---------------------------------------------------------------------------|
G#|---------------------------------------------------------------------------|
E |--12----------12--------/12------12-10-----12-10---------------------------|
B |-----10-------12--------/12------12-10-----12-10---------------------------|
F#|--------12-10-----10-10-----10-10-------10---------------------------------|
B |---------------------------------------------------------------------------|

C#|---------------------------------------------------------------------------|
G#|--3-----3-------------------------------------------------3----------------|
E |--2-----2-----5-----5--5-----5----------------------------2----------------|
B |--0-----0-----5-----5--5-----5--------/5---3/6--5/3--2----0----------------|
F#|-----3-----3--3-----3--3-----3----------------------------------x----x-----|
B |--------------------------------x--x--/5---3/6--5/3--0---------------------|

(Coda)

C#|---------------------------------------------------------------------------|
G#|-6-------------------------------------------------------------------------|
E |-5--5--5--5----------------------------------------------------------------|
B |-3--3--3--3-------5-5-------------/5---3/6---5/3---------------------------|
F#|-3--3--3--3-------3-3------------------------------------------------------|
B |-3-----3----------------x---x-----/5---3/6---5/3-----0---------------------|

/  slide up
| \  slide down
| h  hammer-on
| p  pull-off
| ~  vibrato
| +  harmonic
| x  Mute note
Comments