Nickelback - Where Chords & Tabs

 

Where Chords & Tabs

Nickelback Chords & Tabs

Version: 1 Type: Bass Tab 0 ratings
1 star 2 stars 3 stars 4 stars 5 stars
comments

Where Bass Tab

Artist:Nickelback
Song Name:Where
Tuning:Drop D
Tabbed By:Pillie (pillie2001@hotmail.com)


Fill 1
G--------|
D--------|
A--------|
D--5//---|

Riff 1
G---------------------|
D---------------------|
A-----3--5------3-----|
D--0--------0------3--|

Fill 2
G--------------|
D--------------|
A----3-5-------|
D--0 ----0-----|

Riff 2
G----------------|
D----------------|
A--5---3---5h6p5-|
D----------------|

Riff 3
G---------|--------|--------|--------|--------|--------|--------|--------|
D---------|--------|--------|--------|--------|--------|--------|--------|
A---------|--------|33333333|00000000|--------|--------|33333333|00------|
D-00000000|33333333|--------|--------|00000000|33333333|--------|--------|
[ Tab from: http://www.guitartabs.cc/tabs/n/nickelback/where_btab.html ]
Riff 4
G---------|--------|--------|--------|
D---------|--------|--------|--------|
A---------|--------|33333333|--------|
D-00000000|33333333|--------|00000000|

Riff 5
G---------|--------|--------|--------|
D---------|--------|--------|--------|
A---------|33333333|--------|--------|
D-33333333|--------|0---0---|-0---0--|

Riff 6
G---------|--------|--------|--------|--------|--------|
D---------|--------|--------|--------|--------|--------|
A---------|33333333|--------|--------|--------|--------|
D-33333333|--------|55557777|88888888|88--8---|10------|

riff 7
G-----------------|---------------|
D-----------------|---------------|
A-----------------|---------------|
D-0--3h5-3h5-0h3h5|0-3h5--x-x-3-0-|


Fill 1 * 1
Riff 1 * 7
Fill 2 * 1
Riff 2 * 4

Riff 3 * 1
Riff 4 * 2

Riff 3 * 1
Riff 4 * 2

Riff 5 * 2
Riff 6 * 1

Riff 1 * 4

SOLO - riff 4 * 2

Riff 7 * 4

Riff 4 * 2
Riff 5 * 2
Riff 6 * 1

Riff 1 * 2
Fill 2 * 1
Comments