Nickelback - Too Bad Chords & Tabs

 

Too Bad Chords & Tabs

Nickelback Chords & Tabs

Version: 7 Type: Tab 0 ratings
1 star 2 stars 3 stars 4 stars 5 stars
comments

Too Bad Tab

Too Bad
Nickelback
Tabbed By: Mariano Arnaiz
Anything to: marianoarnaiz@hotmail.com

Intro / Verse

Play the Riff 2 when the verse is endding

Guitar 1 (Light distortion)
 
Riff 1          Riff 1
e-------------  e-----
B-------------  B-----
G-------------  G-----
D---5-5-5-5---  D--55-
A----3-3-3-3--  A--33-
D-------------  D-----

Guitar 2 (hight distortion)

Riff 1          Riff 1
e-------------  e-----
B-------------  B----- 
G-------------  G-----
D---3-3-3-3---  D--3--
A----1-1-1-1--  A--1--
D-------------  D-----

Chorus (both guitars)

Im putting the notes only four times but change when you hear
that the change is comming

e---------------------------------
B---------------------------------
G---------------------------------
D---666-6-/-111-1/3-333-3/1-111---
A---666-6-/-111-1/3-333-3/1-111---
D---666-6-/-111-1/3-333-3/1-111---

Post-Chorus

Guitar 1 (Light distortion)

e--------------------|
B--------------------|
G--12\10----15\12----|
D--------------------|
A--------------------|
D--------------------|

Solo

e-------------------------------------------------------
B-------------------------------------------------------
G-10b-10--8h10v-----10b-10----8h10--8-------------------
D----------------------------------------10v------------
A-------------------------------------------------------
D-------------------------------------------------------


------------8------8--------------8------8-------------
-11-8-----------11-----11-8----------11----------------
--------10--------------------10-----------------------
-------------------------------------------------------
-------------------------------------------------------

[ Tab from: http://www.guitartabs.cc/tabs/n/nickelback/too_bad_tab_ver_7.html ]
-------------8-------8---------------------------------
-11-8------------11-------11/13v-----------------------
--------10---------------------------------------------
-------------------------------------------------------
-------------------------------------------------------
-------------------------------------------------------


-------------------------------------------------------
-------------------------------------------------------
-10b-10--8h10v-----10b-10----8h10--8-------------------
----------------------------------------10b------------
-------------------------------------------------------
-------------------------------------------------------


Outro

e---------------------------------------------------------------------------
B--------------10-----------------------------------------------------------
G--------------------12-----10/12------12~-----12------10/12---12-10--------
D----12--------------------------------------------------------------12-12--
A---------------------------------------------------------------------------
D---------------------------------------------------------------------------

e----------------10------10--------------10------10------------------10--
B----13-10---13------10-------13-10----------10--------13-10-------------
G------------------------------------13-------------------------13-------
D------------------------------------------------------------------------
A------------------------------------------------------------------------
D------------------------------------------------------------------------

e---------------------------------------------------------------------------
B----13/15------------------------------------------------------------------
G--------------12~-----12--10/12------12~-----12----10/12-/-10--------------
D-----------------------------------------------------------------12-12-12--
A---------------------------------------------------------------------------
D---------------------------------------------------------------------------
Comments