Nickelback - Too Bad Chords & Tabs

 

Too Bad Chords & Tabs

Nickelback Chords & Tabs

Version: 2 Type: Tab 0 ratings
1 star 2 stars 3 stars 4 stars 5 stars
comments

Too Bad Tab

#----------------------------------PLEASE NOTE--------------------------------#
#This file is the author's own work and represents their interpretation of the#
#song. You may only use this file for private study, scholarship, or research.#
#-----------------------------------------------------------------------------#
#-- File created with Instab - http://www.pconline.com/~smcarey/instab.html --#
#-----------------------------------------------------------------------------#

Author/Artist: Nickelback
Title: Too Bad
Album: Silver Side Up
Transcribed by: Travis Lausch
Email: the4elements2001@hotmail.com

-||----------------|-----------------||-||---------------------------------|--
-||----------------|-----------------||-||---------------------------------|--
-||----------------|-----------------||-||---------------------------------|--
-||5---5---5---5---|-5---5---5---5---||-||-6-6-6-6-6-6-6-6-1-1-1-1-1-1-1-1-|--
-||--3---3---3---3-|---3---3---3---3-||-||-6-6-6-6-6-6-6-6-1-1-1-1-1-1-1-1-|--
-||----------------|-----------------||-||-6-6-6-6-6-6-6-6-1-1-1-1-1-1-1-1-|--
 Intro/Verse                             Chorus                               

-|---------------------------------||------------||---------------------------
-|---------------------------------||------------||-8r6---10r8----------------
-|---------------------------------||-5----------||---------------------------
-|-1-3-3-3-1-3-3-3-1-3-3-3-1-3-3-3-||-5----------||---------------------------
-|-1-3-3-3-1-3-3-3-1-3-3-3-1-3-3-3-||-3----------||---------------------------
-|-1-3-3-3-1-3-3-3-1-3-3-3-1-3-3-3-||------------||---------------------------
                                     Post Chorus   Fill A (play 1x after      

--------||-------------------------------------||------------|-------------|--
--------||-10r8--------------------------------||-8r6--4-----|-/6\-/4\-----|--
--------||-------------------------------------||---------5\-|---------/5\-|--
--------||-------------------------------------||------------|-------------|--
--------||-------------------------------------||------------|-------------|--
--------||-------------------------------------||------------|-------------|--
 chorus)  Fill B (play 3x during second verse)   Guitar Solo 1                
[ Tab from: http://www.guitartabs.cc/tabs/n/nickelback/too_bad_tab_ver_2.html ]
-|---------|-------------|-------|-------------|----------------|-------------
-|-----4-6-|-4-6-6b8-8r6-|-8r6---|-4/6\4-------|-----4/6/8\6\4//|-------------
-|-3/5-----|-------------|-------|-------5\3/5-|-3/5------------|-------------
-|---------|-------------|-------|-------------|----------------|-------------
-|---------|-------------|-------|-------------|----------------|-------------
-|---------|-------------|-------|-------------|----------------|-------------
                                                                              

-|-------------6----|-------|-------------|-----------------|-13b15r13b15-|---
-|-6-8r6-4/6/8---8\-|-8r6---|-8r6-4h6p4---|-----4---4-6-8r6-|-------------|---
-|------------------|-------|-----------5-|-3/5---5---------|-------------|---
-|------------------|-------|-------------|-----------------|-------------|---
-|------------------|-------|-------------|-----------------|-------------|---
-|------------------|-------|-------------|-----------------|-------------|---
                                                                              

-|-11h13-/8-/6--------|---------||--------------|---------------|-------------
-|-------------/6--/4-|---------||----6h8-6-4/6-|-6h8-6-4/6-4---|-------------
-|--------------------|-5-------||-/5-----------|-------------5-|-------------
-|--------------------|-5-------||--------------|---------------|-------------
-|--------------------|-3-------||--------------|---------------|-------------
-|--------------------|---------||--------------|---------------|-------------
                                 Outro Solo                                   

-|----------------------------------------------|-----------|-------------|---
-|-11p8----13p8----11p8----13p8h13-11p8-11p8/13-|-6b8-6-4h6-|-6b8-6-4h6-4-|---
-|------10------10------10----------------------|-----------|-------------|---
-|----------------------------------------------|-----------|-------------|---
-|----------------------------------------------|-----------|-------------|---
-|----------------------------------------------|-----------|-------------|---
                                                                              

-|--------|-------------||----------------------------------------------------
-|--------|-------------||----------------------------------------------------
-|-5------|-5b7r5-------||----------------------------------------------------
-|--------|-------------||----------------------------------------------------
-|--------|-------------||----------------------------------------------------
-|--------|-------------||----------------------------------------------------
            tied from previous measure                                        

Comments