Nickelback - Throw Yourself Away Chords & Tabs

 

Throw Yourself Away Chords & Tabs

Nickelback Chords & Tabs

Version: 2 Type: Tab 0 ratings
1 star 2 stars 3 stars 4 stars 5 stars
comments

Throw Yourself Away Tab

   
----------------------------------------------------------------------------
			     throw yourself away - Nickelback
----------------------------------------------------------------------------
Tabbed by: Anonymous
Email:

Tuning: Drop C (cgcfad)

intro/verses
d|--------------------------------------------------------------------------|
A|--------------------------------------------------------------------------|
F|--------------------------------------------------------------------------|
C|---0---xx-x--xx-x---0--xx-x-----------------------------------------------|
G|---0---xx-x--xx-x---0--xx-x---10------------------------------------------|
C|---0---xx-x--xx-x---0--xx-x-10--------------------------------------------|
Chorus
d|--------------------------------------------------------------------------|
A|--------------------------------------------------------------------------|
F|--------------------------------------------------------------------------|
C|---10-----5-----0-3-5---0-3-5---0-3-5-------------------------------------|
G|---10-----5-----0-3-5---0-3-5---0-3-5-------------------------------------|
C|---10-----5-----0-3-5---0-3-5---0-3-5-------------------------------------|
[ Tab from: http://www.guitartabs.cc/tabs/n/nickelback/throw_yourself_away_tab_ver_2.html ]
d|--------------------------------------------------------------------------|
A|--------------------------------------------------------------------------|
F|--------------------------------------------------------------------------|
C|---0--x--12--0--x--12-0---0--3--5--3--0--3--5--3--------------------------|
G|---0--x--12--0--x--12-0---0--3--5--3--0--3--5--3--------------------------|
C|---0--x--12--0--x--12-0---0--3--5--3--0--3--5--3--------------------------|
                          pm.......................

verse

Chorus

solo
d|---------------------------------------------------------------------------|
A|---------------------------------------------------------------------------|
F|---------------------------------------------------------------------------|
C|-----------------3-(5)--55-66-77-7\3--7-10--7--10b--7-10b--12--------------|
G|--------0-5-3--5-----------------------------------------------------------|
C|---3--5--------------------------------------------------------------------|

| /  slide up
| \  slide down
| h  hammer-on
| p  pull-off
| ~  vibrato
| +  harmonic
| x  Mute note
===============================================================================
Comments