Nickelback - Someday Chords & Tabs

 

Someday Chords & Tabs

Nickelback Chords & Tabs

Version: 6 Type: Tab 0 ratings
1 star 2 stars 3 stars 4 stars 5 stars
comments

Someday Tab

   
Artist: Nickelback
Song: Someday
Album: The Long Road (releases Sept.23)

i wrote this tab listening to the song on the website over and over and
over...but hey,i worked my ass off, listened to song a lot, and i still like it! ;)

tuning: d a d g b a

verse guitar 1 and 2 chords (the strum pattern is easy to play, hard to write,
so you can get it lon your own)

e-------------|
b-------------|
G-------------|
D-9--5--7--0--|
A-9--5--7--0--|
D-9--5--7--0--|

there is a little twist when playing the sevens, and it goes like this:
e--------------------|
b--------------------|
G--------------------|
D-7--9---9--x-x-0-0--|
A-7----7----x-x-0-0--|
D-7---------x-x-0-0--|

prechorus guitar one chords (palm mute at first, then slowly come off)
e--------------------------|
b--------------------------|
G--------------------------|
D---------------------7-7--|
A-2-2-2-2-2-2-7-7-7-7-7-7--|
D-2-2-2-2-2-2-7-7-7-7-7-7--|

chorus guitar 1 chords
e--------------|
b--------------|
G--------------|
D-12--0--7--2--|
A-12--0--7--2--|
D-12--0--7--2--|

chorus guitar 2 
e----------------------------------------------|
b---------7--------------------7---------7-----|
G-----7----------7---9-----7---------7---------|
D-7/9---9----7/9---9---7/9---9---7/9---9----9--| etc...you should be able to
A----------------------------------------------| listen and see when to play/
D----------------------------------------------| what to play, it's something
                                                 to that extent, i mean, it 
                                                 is kind of hard to tab from
                                                 a song off the internet with
                                                 crappy speakers

the rest of the chorus for guitar 1
(when "you're the only one who knows that" plays) sometimes palm mute and
e------------------|  only played a few times, (first chorus ends with just
b------------------|  2~)
G------------------|
D-2-2-2-2-5-5-7-7--|
A-2-2-2-2-5-5-7-7--|
D-2-2-2-2-5-5-7-7--|

chords played while solo is going
e------------------------------------|
b------------------------------------|
G------------------------------------|
D-12-0-7-2-12-0-9-9-12-0-7-2-12-0-9--|
A-12-0-7-2-12-0-9-9-12-0-7-2-12-0-9--|
D-12-0-7-2-12-0-9-9-12-0-7-2-12-0-9--|
[ Tab from: http://www.guitartabs.cc/tabs/n/nickelback/someday_tab_ver_6.html ]
solo
e-----------------------------------------------------------|
b-----------------------------------------------------------|
G-----------------------------------------------------------|
D---9-11-12/11-9-11-7-7--11-12/11-7-9---7-9---11-9---11-12--|
A-9---------------------9-------------9-----9------9--------|
D-----------------------------------------------------------|

e-----------------------------------------------------------|
b---------------------5------------9------------------------|
G-----------------------6-7--6-7-----7-9---6-7---9-11-------|
D---11-12---11-12-7-7-------4----7-------4-----7------9~----|
A-9-------9-------------------------------------------------|
D-----------------------------------------------------------|

How the Hell'd we wind up like this
why weren't we able
to see the signs that we missed
and try to turn the tables
i wish you'd look at your fists
and i'll pack your suitcase
lately there's been too much of this
i don't think it's too late

nothings wrong just as long as you know that someday i will
someday somehow i'm gonna be alright but not right now
i know your wandering away
your the only one who knows that
someday somehow i'm gonna be alright but not right now
i know your wandering away

i hope that since we're here anyway
we could end up saying
things we've always needed to say
so we can end up stream
now the stories played out like this
just like a paperback novel
lets rewrite an ending that fits
instead of a hollywood horror

nothings wrong just as long as you know that someday i will
someday somehow i'm gonna be alright but not right now
i know your wandering away
your the only one who knows that
someday somehow i'm gonna be alright but not right now
i know your wandering away
your the only one that knows thaaaaaaaa....

How the Hell'd we wind up like this
why weren't we able
to see the signs that we missed
and try to turn the tables
now the stories played out like this
just like a paperback novel
lets rewrite an ending that fits
instead of a hollywood horror

nothings wrong just as long as you know that someday i will
someday somehow i'm gonna be alright but not right now
i know your wandering away
your the only one who knows that
someday somehow i'm gonna be alright but not right now
i know your wandering away
your the only one who knows that
i know your wandering away
your the only one who knows that
i know your wandering away
Comments