Nickelback - Someday Chords & Tabs

 

Someday Chords & Tabs

Nickelback Chords & Tabs

Version: 3 Type: Tab 1 rating
1 star 2 stars 3 stars 4 stars 5 stars
comments

Someday Tab

   
Chords Used:         Bm  - xx4432 
                     G   - 230030
                     A   - 002200
                     D   - xx0230
                     E   - 022100

Bm                     G                     A
How the hell'd we wind up like this
           D
Why weren't we able
Bm              G                        A
To see the signs that we missed
            D
Try and turn the tables
Bm                G                     A
I wish you'd unclench your fists
          D
And unpack your suitcase
Bm                      G                      A
Lately theres been too much of this
            D
But don't think it's too late
E
Nothings wrong
                 A
Just as long as you know that someday I will


G              D
Someday, Somehow
A                                  E
I'm gonna make it alright but not alright now
G                       A                   Bm                       A
I know your're  wondering away (your're the only one who knows that)
G               D
Someday, Somehow
A                                 E
I'm gonna make it alright but not alright now
G                      A                  Bm
I know you're wondering away


        Bm                             G                  A
Well I hope that since we're here anyway
             D
We could end up saying
Bm                            G                 A
Things we've always needed to say
               D
So we could end up staying
Bm                    G                     A
Now the story's played out like this
              D
Just like a paperback novel
Bm                  G                   A
Lets rewrite an ending that fits
              D
Instead of hollywood horror
E
Nothings wrong
              A
Just as long as you know that someday I will


G              D
Someday, Somehow
A                                 E
I'm gonna make it alright but not alright now
G                   A                   Bm                       A
I know your're wondering away (your're the only one who knows that)
G               D
Someday, Somehow
A                                E
I'm gonna make it alright but not alright now
G                   A                 Bm
I know you're wondering away


(Same chords as used in the chorus)
[ Tab from: http://www.guitartabs.cc/tabs/n/nickelback/someday_tab_ver_3.html ]
e|------------------------------------------------------------------------------
b|------------------------------------------------------------------------------
g|-----4 6h7-6---4----2-6h7-6-4-2-----2-4------6-4---------22-33------22-33-----
d|--2--------------2---------------2--------2---------444---------222-----------
a|------------------------------------------------------------------------------
e|------------------------------------------------------------------------------

e|---------------------------------------------------------------------------------------
b|---------22--33-----55--22--33--------22-33--------77--33-55----------22--33-----5-7-0-
g|------444---------22---------------444-----------22-------------444----------22--------
d|---------------------------------------------------------------------------------------
a|---------------------------------------------------------------------------------------
e|---------------------------------------------------------------------------------------


Bm                      G                   A
How the hell'd we wind up like this
            D
Why weren't we able
Bm                G                       A
To see the signs that we missed
             D
And try and turn the tables
Bm                    G                    A
Now the story's played out like this
              D
Just like a paperback novel
Bm                       G               A
Lets rewrite and ending that fits
               D
Instead of hollywood horror
E
Nothings wrong
                A 
Just as long as you know that someday I will


G               D              
Someday, Somehow
A                                 E                          
I'm gonna make it alright but not alright now
G                   A                   Bm                    A
I know you're wondering away (you're the only one who knows that)
G               D
Someday, Somehow 
A                                 E
I'm gonna make it alright but not alright now
G                   A                     Bm                    A                         
I know you're wondering away (You're the only one who knows that)
G                   A                     Bm                    A
I know you're wondering away (You're the only one who knows that)
G                   A                E
I know you're wondering away

Ending (Repeat as desired) 
e|------1-----1-
b|-----2-----2--
g|----3-----3---
d|--44----44----
a|--------------
e|--------------

Written By GandalfTheWhite24
Comments