Nickelback - Someday Chords & Tabs

 

Someday Chords & Tabs

Nickelback Chords & Tabs

Version: 2 Type: Tab 2 ratings
1 star 2 stars 3 stars 4 stars 5 stars
comments

Someday Tab

   
Artist: Nickelback
Song: Someday
Album: The Long Road (2003)
Tuning: Drop D (D A D G B E)
Tabber: undecided_gtr

I'm gonna catch a lot of hell for this tab cuz they'll say, "It's not in that tuning." I'm just gonna go as far as saying that I read Guitar World too. Although the actual tuning is Drop C (low to high: C G C F A D), there is a fairly accurate way to play in Drop D, which is what this tab is all about. This transcription is not unlike the one in Guitar World, but it's moved back two frets because it's in Drop D. If you don't like the tab, oh well. That's your problem.

(Chad) Verse
E|---------------------------------------|
B|---xxxx--3-----------2---------xxxx--3-|
G|---xxxx--4-----4-----2---------xxxx--2-|
D|---xxxx--4-x6--5-x6--2-x6------xxxx--0-|
A|---xxxx--2-----5-----0---------xxxx--0-|
D|---------------5---------------------0-|

(Ryan) Lead Verse
3rd and 4th times only
E|----------------------------|-----------------------------------------------|
B|---3--2--3--2-----3--2------|----------3----2-------------------------------|
G|---4--4--4--4-----4--4------|-----2-------------2----2----------------------|
D|----------------------------|-----------------------------------------------|
A|----------------------------|-----------------------------------------------|
D|----------------------------|-----------------------------------------------|

(Both) Pre-Chorus
E|-----------------------------------------------------|-----------|
B|-----------------------------------------------------|-----------|
G|-----------------------------------------------------|-----------|
D|---------2-2-2-2-2-2-2-2-------------7--7--7--7---7--|-----------|
A|---------2-2-2-2-2-2-2-2-------------7--7--7--7---7--|-----------|
D|---------2-2-2-2-2-2-2-2-------------7--7--7--7---7--|-----------|
           

(Chad) Chorus
E|---------------------------------------------------|
B|------------------------2-2-2----------------------|
G|---4-4-4----2-2-2-------2-2-2--------------4-4-4---|
D|---5-5-5----0-0-0-------2-2-2--------------2-2-2---|
A|---5-5-5----0-0-0-------0-0-0--------------2-2-2---|
D|---5-5-5----0-0-0--------------------------2-2-2---|

E|------------------------------------------------------|
B|----------------2-2-2-----------3-3-3----------2-2-2--|
G|---4-4-4--------2-2-2-----------4-4-4----------2-2-2--|(last time at)
D|---5-5-5--------2-2-2-----------4-4-4----------2-2-2--|(end---repeat)
A|---5-5-5--------0-0-0-----------2-2-2----------0-0-0--|
D|---5-5-5----------------------------------------------|


(Ryan) Chorus
let ring ----------> let ring --------> let ring ------------------------>
E|---------------2---|--------------2---|--------------2----------------2-----|
B|---------3---------|--------3---------|--------3----------------3-----------|
G|---2--4-----4------|--2--4-----4------|--2--4-----4-------2--4-----4--------|
D|-------------------|------------------|-------------------------------------|
A|-------------------|------------------|-------------------------------------|
D|-------------------|------------------|-------------------------------------|

[ Tab from: http://www.guitartabs.cc/tabs/n/nickelback/someday_tab_ver_2.html ]
E|---------2--------------------|--------------2-------------------|
B|------3--------/5--3----2-----|--------3----------------3-----2--|
G|---4--------4--------------4--|--2--4-----4-------2--4-----4-----|(last time at)
D|------------------------------|----------------------------------|(end---repeat)
A|------------------------------|----------------------------------|
D|------------------------------|----------------------------------|

Verse riffs

Pre-chorus

Chorus riffs

(Chad) Guitar Solo
E|-------------------------------------|-------------------------------------|
B|-------------------------------------|-------------------------------------|
G|-------------------------------------|-------------------------------------|
D|---------------11--11b(11)(11)-----9-|------------/11--(11)b(11)(11)-----9-|
A|-------9-(9)-------------------12----|------7-(7)--------------------12----|
D|---9---------------------------------|-7-----------------------------------|

E|--------------------------------------|-------------------------------------|
B|--------------------------------------|-------------------------------------|
G|--------------------------------------|--------6-6-6-7-7-------6-6-6-7-8----|
D|-------7-(7)--7/9--------9/11--11---9-|--9-9-9-----------7-7-7--------------|
A|---5----------------7-----------------|-------------------------------------|
D|--------------------------------------|-------------------------------------|

E|---------------7---7---7--10--10-----------12--12---9---9--12---9----------|
B|--12--12--12----------------------10--10-----------------------------------|
G|---------------6---6---6---7---7------------9---9---6---6---7---6----------|
D|---9---9---9-----------------------7---7-----------------------------------|
A|---------------------------------------------------------------------------|
D|---------------------------------------------------------------------------|

E|---------------7---7---7--10--10-----------12--12---9---9--10---9----------|
B|--12--12--12----------------------10--10-----------------------------------|
G|---------------6---6---6---7---7------------9---9---6---6---7---6----------|
D|---9---9---9-----------------------7---7-----------------------------------|
A|---------------------------------------------------------------------------|
D|---------------------------------------------------------------------------|

E|---------9----9---10---------12(12)--12/14---------------------------------|
B|--12-------------------10------------------12------------------------------|
G|---------6----6----7----------9-(9)---9/11---------------------------------|
D|---9--------------------7-------------------9------------------------------|
A|---------------------------------------------------------------------------|
D|---------------------------------------------------------------------------|

Ryan plays Chad's chorus riff

(Chad) End of Song
E|---------------|--------------|------------------------------|
B|---------2-----|--5-----------|--5---------------------------|
G|---4-----2-----|--4-----------|--4---------------------------|
D|---5-----2-----|--2-----------|--2---------------------------|
A|---5-----0-----|--2-----------|--2---------------------------|
D|---5-----------|--2-----------|--2---------------------------|

(Ryan) End of Song
let ring ---------->
E|---------------2---|
B|---------3---------|
G|---2--4-----4------|(play 3x after Chad)
D|-------------------|(strikes last chord)
A|-------------------|
D|-------------------|

After you play your last note just let them fade out on their own without causing feedback.
Comments