Nickelback - Someday Chords & Tabs

 

Someday Chords & Tabs

Nickelback Chords & Tabs

Version: 18 Type: Tab 0 ratings
1 star 2 stars 3 stars 4 stars 5 stars
comments

Someday Tab

Tabbed By Muryk124
email: nadeaupierre@hotmail.com


Guitar 1:
e|----------------------------------------------------|
B|----------------------------------------------------|
G|----------------------------------------------------|
D|-------11-11b-11------9~-------/11-11b-11------9~---|
A|----14-------------12-------9--------------12-------|
D|-12----------------------7--------------------------|

e|----------------------------------------------------|
B|----------------------------------------------------|
G|----------------------------------------------------|
D|----------------------------11-11-11-12-12-12-------|
A|-------12--14-----/16--14~--------------------------|
D|---12----------7------------------------------------|

e|-------------------------------|
B|-------------------------------|
G|-------------------------------|
D|-----------11-11-11-12-12-12---|
A|--14-14-14---------------------|
D|-------------------------------|
[ Tab from: http://www.guitartabs.cc/tabs/n/nickelback/someday_tab_ver_18.html ]
   Guitar 1
e||-------------------------------------------------------|
B||-------------------------------------------------------|
G||-------------------------------------------------------|
D||-----------11-11-11-12-12-12-------14-14-11-11-12-12---|
A||--14-14-14-------------------12-12---------------------|
D||-------------------------------------------------------|
 ||							  |
 ||Guitar 2						  |
e||-------------------------------------------------------|
B||-------------------------------------------------------|
G||-----------14-14-14-15-15-15-------17-17-14-14-15-15---|
D||--16-16-16-------------------14-14---------------------|
A||-------------------------------------------------------|
D||-------------------------------------------------------|


   Guitar 1
e||-------------------------------------------------------|
B||-------------------------------------------------------|
G||-------------------------------------------------------|
D||-----------11-11-11-12-12-12-------16-16-12-12-14-14---|
A||--14-14-14-------------------12-12---------------------|
D||-------------------------------------------------------|
 ||
 ||Guitar 2
e||-------------------------------------------------------|
B||-------------------------------------------------------|
G||-----------14-14-14-15-15-15-------19-19-15-15-17-17---|
D||--16-16-16-------------------14-14---------------------|
A||-------------------------------------------------------|
D||-------------------------------------------------------|

   Guitar 1
e||-------------------------------------------------------|
B||-------------------------------------------------------|
G||-------------------------------------------------------|
D||-----------11-11-11-12-12-12------14-14/16--9----------|
A||--14-14-14-------------------12------------------------|
D||-------------------------------------------------------|
 ||
 ||Guitar 2
e||-------------------------------------------------------|
B||-------------------------------------------------------|
G||-----------14-14-14-15-15-15------15-15/19--12---------|
D||--16-16-16-------------------14------------------------|
A||-------------------------------------------------------|
D||-------------------------------------------------------|
Comments