Nickelback - Someday Chords & Tabs

 

Someday Chords & Tabs

Nickelback Chords & Tabs

Version: 16 Type: Tab 0 ratings
1 star 2 stars 3 stars 4 stars 5 stars
comments

Someday Tab

Artist: Chad Kroger (Nickelback) and Josey Scott (Saliva)
Title: Hero
Album: "Spiderman" Soundtrack
Transcribed by: Nate Stiller
Email: neonlights2005@hotmail.com

Standard Tuning EADGBe

It's pretty easy... just figure out the strum patterns and follow allong mesure by mesure.

Verse/Beginning
----------------|----------------|----------------|----------------|
----------------|----------------|----------------|----------------|
----------------|----------------|----------------|----------------|
6---6---6---6---|2---2---2---2---|6---6---6---6---|2---2---2---2---|
6---6---6---6---|2---2---2---2---|6---6---6---6---|2---2---2---2---|
4---4---4---4---|0---0---0---0---|4---4---4---4---|0---0---0---0---|

Pre-Chorus
----------------|----------------|----------------|
----------------|----------------|----------------|
----------------|----------------|----------------|
5-5-5-5-5-5-7-7-|7-7-7-7-2-2-2-2-|2-2-2-2-2-2-----|
5-5-5-5-5-5-7-7-|7-7-7-7-2-2-2-2-|2-2-2-2-2-2-----|
3-3-3-3-3-3-3-3-|3-3-3-3-0-0-0-0-|0-0-0-0-0-0-----|
                       PM....................

Chorus
----------------|----------------|----------------|
----------------|----------------|----------------|
----------------|----------------|----------------|
5-5-5-5-5-5-7-7-|7-7-7-7-9-9-9-9-|9-9-9-9-9-9-7-7-|
5-5-5-5-5-5-7-7-|7-7-7-7-9-9-9-9-|9-9-9-9-9-9-7-7-|
3-3-3-3-3-3-5-5-|5-5-5-5-7-7-7-7-|7-7-7-7-7-7-5-5-|

----------------|----------------|----------------|
----------------|----------------|----------------|
----------------|----------------|----------------|
5-5-5-5-5-5-7-7-|7-7-7-7-2-2-2-2-|2-2-2-2-2-2-----|
5-5-5-5-5-5-7-7-|7-7-7-7-2-2-2-2-|2-2-2-2-2-2-----|
3-3-3-3-3-3-5-5-|5-5-5-5-0-0-0-0-|0-0-0-0-0-0-----|
                       PM....................
Verse
----------------|----------------|----------------|----------------|
----------------|----------------|----------------|----------------|
----------------|----------------|----------------|----------------|
6---6---6---6---|2---2---2---2---|6---6---6---6---|2---2---2---2---|
6---6---6---6---|2---2---2---2---|6---6---6---6---|2---2---2---2---|
4---4---4---4---|0---0---0---0---|4---4---4---4---|0---0---0---0---|

Pre-Chorus
----------------|----------------|----------------|
----------------|----------------|----------------|
----------------|----------------|----------------|
5-5-5-5-5-5-7-7-|7-7-7-7-2-2-2-2-|2-2-2-2-2-2-----|
5-5-5-5-5-5-7-7-|7-7-7-7-2-2-2-2-|2-2-2-2-2-2-----|
3-3-3-3-3-3-3-3-|3-3-3-3-0-0-0-0-|0-0-0-0-0-0-----|
                       PM....................
Chorus
----------------|----------------|----------------|
----------------|----------------|----------------|
----------------|----------------|----------------|
5-5-5-5-5-5-7-7-|7-7-7-7-9-9-9-9-|9-9-9-9-9-9-7-7-|
5-5-5-5-5-5-7-7-|7-7-7-7-9-9-9-9-|9-9-9-9-9-9-7-7-|
3-3-3-3-3-3-5-5-|5-5-5-5-7-7-7-7-|7-7-7-7-7-7-5-5-|
[ Tab from: http://www.guitartabs.cc/tabs/n/nickelback/someday_tab_ver_16.html ]
----------------|----------------|----------------|
----------------|----------------|----------------|
----------------|----------------|----------------|
5-5-5-5-5-5-7-7-|7-7-7-7-2-2-2-2-|2-2-2-2-2-2-2-2-|
5-5-5-5-5-5-7-7-|7-7-7-7-2-2-2-2-|2-2-2-2-2-2-2-2-|
3-3-3-3-3-3-5-5-|5-5-5-5-0-0-0-0-|0-0-0-0-0-0-0-0-|

Solo Part
-----------------------------------------------------------
-----------------------------------------------------------
-----------------------------------------------------------
-----------------------------------------------------------
7676765---7676764---2----5---9797975---9797974--2-5-7-9----
-----------------------------------------------------------
^^^^^^^^^^^^^^^^^
This part I think is wrong but I'm not sure


Clean Fingerpicking-Good Part

All this part it is just the power cords fingerpicked 
with the e string plucked at the high part...  can't 
really get this part but you will understand when you listen to it.

-----5----------|-7--------------|--9-------------|
----------------|----------------|----------------|
----------------|----------------|----------------|
5-----------7---|--------9-------|----------------|
5-----------7---|--------9-------|----------------|
3-----------5---|--------7-------|----------------|

-----5----------|-7--------------|----------------|
----------------|----------------|----------------|
----------------|----------------|----------------|
5-----------7---|--------2-2-2-2-|2-2-2-2-2-2-----|
5-----------7---|--------2-2-2-2-|2-2-2-2-2-2-----|
3-----------5---|--------0-0-0-0-|0-0-0-0-0-0-----|
                       PM....................

Chorus/End
----------------|----------------|----------------|
----------------|----------------|----------------|
----------------|----------------|----------------|
5-5-5-5-5-5-7-7-|7-7-7-7-9-9-9-9-|9-9-9-9-9-9-7-7-|
5-5-5-5-5-5-7-7-|7-7-7-7-9-9-9-9-|9-9-9-9-9-9-7-7-|
3-3-3-3-3-3-5-5-|5-5-5-5-7-7-7-7-|7-7-7-7-7-7-5-5-|

----------------|----------------|----------------|
----------------|----------------|----------------|
----------------|----------------|----------------|
5-5-5-5-5-5-7-7-|7-7-7-7-2-2-2-2-|2-2-2-2-2-2-2-2-|
5-5-5-5-5-5-7-7-|7-7-7-7-2-2-2-2-|2-2-2-2-2-2-2-2-|
3-3-3-3-3-3-5-5-|5-5-5-5-0-0-0-0-|0-0-0-0-0-0-0-0-|

----------------|----------------|----------------|
----------------|----------------|----------------|
----------------|----------------|----------------|
5-5-5-5-5-5-7-7-|7-7-7-7-9-9-9-9-|9-9-9-9-9-9-7-7-|
5-5-5-5-5-5-7-7-|7-7-7-7-9-9-9-9-|9-9-9-9-9-9-7-7-|
3-3-3-3-3-3-5-5-|5-5-5-5-7-7-7-7-|7-7-7-7-7-7-5-5-|

----------------|----------------|----------------|
----------------|----------------|----------------|
----------------|----------------|----------------|
5-5-5-5-5-5-7-7-|7-7-7-7-9-9-9-9-|9-9-9-9-9-9-7-7-|
5-5-5-5-5-5-7-7-|7-7-7-7-9-9-9-9-|9-9-9-9-9-9-7-7-|
3-3-3-3-3-3-5-5-|5-5-5-5-7-7-7-7-|7-7-7-7-7-7-5-5-|

----------------|----------------|----------------|
----------------|----------------|----------------|
----------------|----------------|----------------|
5-5-5-5-5-5-7-7-|7-7-7-7-2---7---|2-----------9---|
5-5-5-5-5-5-7-7-|7-7-7-7-2---7---|2-----------9---|
3-3-3-3-3-3-5-5-|5-5-5-5-0---5---|0-----------7---|
Comments