Nickelback - Someday Solo Chords & Tabs

 

Someday Solo Chords & Tabs

Nickelback Chords & Tabs

Version: 2 Type: Tab 0 ratings
1 star 2 stars 3 stars 4 stars 5 stars
comments

Someday Solo Tab

 
 Nickelback-Someday (solo)

 e|------------------------------------------------------------------
 b|------------------------------------------------------------------
 g|----------------------------------------------------------8-8-8-9-9
 d|-----13b--11-----13b---11----9--9/11--11/13--11--11-11-11---------
 a|----11--14-----9----14-----7--------9-----------------------------
 e|--11----------9---------------------------------------------------

 e|---------------------------11-11-11-12-12--------14-14-11-11-12-11
 b|-------------------14-14-14----------------12-12-----------------
 g|--------8-8-8-9-8-----------8--8--8--9--9--------11-11--8--8--9--8
 d|--9-9-9------------11-11-11-----------------9--9------------------
 a|-------------------------------------------------------------------
 e|------------------------------------------------------------------
[ Tab from: http://www.guitartabs.cc/tabs/n/nickelback/someday_solo_tab_ver_2.html ]
 e|---------11-11-11-12-12-------16-16--12-12-14-12-------11----12--
 b|-14-14-14---------------12-12--------------------14-------------12
 g|----------8--8--8--9--9-------13-13---9--9-11--9--------8----9---
 d|-11-11-11---------------9--9---------------------11-------------9
 a|----------------------------------------------------------------
 e|----------------------------------------------------------------

 e|--14----14/16--------------------------------------------------
 b|---------------14-----------------------------------------------
 g|--11----11/13--------------------------------------------------
 d|---------------11-----------------------------------------------
 a|----------------------------------------------------------------
 e|-----------------------------------------------------------------


  as you can hear on the song the parts where they overlap eachother, 
  two different guitars are playing each part
Comments