Nickelback - Someday Chords & Tabs

 

Someday Chords & Tabs

Nickelback Chords & Tabs

Version: 1 Type: Bass Tab 0 ratings
1 star 2 stars 3 stars 4 stars 5 stars
comments

Someday Bass Tab

Verse:

G -----------------|-----------------|
D ---------0-0-0-0-|---------2-2-2-2-|
A -2-2-2-2---------|-0-0-0-0---------|
E -----------------|-----------------| x4


Pre-Chorus:

G -----------------|-----------------|
D -2-2-2-2-2-2-2-2-|-2-2-2-2-2-4-2-0-|
A -----------------|-----------------|
E -----------------|-----------------|


Chorus/Bridge:
[ Tab from: http://www.guitartabs.cc/tabs/n/nickelback/someday_btab.html ]
G -----------------|-----------------|-----------------|-----------------|
D -0-0-0-0---------|-2-2-2-2-2-2-2-2-|-0-0-0-0---------|-----------------|
A ---------0-0-0-0-|-----------------|---------0-0-0-0-|-2-2-2-2-2-2-2-2-|
E -----------------|-----------------|-----------------|-----------------| x4

Verse      x4
Pre-chorus x1
Chorus     x4
Bridge     x2
Verse      x4
Pre-Chorus x1
Chorus     x4


Comments