Nickelback - Savin Me Chords & Tabs

 

Savin Me Chords & Tabs

Nickelback Chords & Tabs

Version: 7 Type: Tab

Savin Me Tab

Savin' Me (solo) by Nickelback

Tabbed by: Caleb Howard (a.k.a. BrokenWingman)

I figured it out by ear tonight, so let me know about minor errors.

~ = Ring Out
. = Repeat previous mentioned fret by however many dots
h = Hammer On
p = Pull off
/ = Slide up to

e---------------          ----------------------------------|
B---------------          ----------------------------------|
G---------------          ----------------------------------|
D-5h6p5--------- Repeat3x ----------------------------------| 2:00-2:05
A-------8--6--8-          8p6-------6-8/10-8-8-6------------|
E---------------          ----8-8-8-------------------------|
[ Tab from: http://www.guitartabs.cc/tabs/n/nickelback/savin_me_tab_ver_7.html ]
e------------------------------------------------------------|
B------------------------------------------------------------|
G------------------------------------------------------------|
D-5h6p5--------------------------------------8-10------------| 2:06-2:11
A-------8--6--8-------6--10--8-888/10../11..-----------------|
E---------------6-6-6----------------------------------------|

e-----------------          ------------------------------------|
B-8h9p8-----------          ------------------------------------|
G-------10--8--10-          -10p8----------8-10/12-10-10-8------|
D----------------- Repeat3x------10-10-10-----------------------| 2:12-2:17
A-----------------          ------------------------------------|
E-----------------          ------------------------------------|

e--------------------------------13~-----------| (Ring out for a while)
B-6/8-8-8-8h9-9h11-11/13-11-9-11---------------|
G----------------------------------------------|
D----------------------------------------------| 2:18-2:22
A----------------------------------------------|
E----------------------------------------------|

The timing isn't perfect, but then again, is any tabs timing perfect?
Playing along with the song, it helps.

Unfortunately I think the song is in Drop D. So notes played on the low E
Just adjust up 2 frets (if your in Drop D) or find their equivalent on the A string.