Nickelback - Savin Me Chords & Tabs

 

Savin Me Chords & Tabs

Nickelback Chords & Tabs

Version: 5 Type: Tab 0 ratings
1 star 2 stars 3 stars 4 stars 5 stars
comments

Savin Me Tab

   
Nickelback Ė Saviní Me

Artist: Nickelback
Album: All the Right Reason
Genre: Rock
Tuning: Drop D (DADGBe)

Intro/Verse (Guitar 1)
e|-----------------------|------------------------|
B|-----------------------|------------------------|
G|-----------------------|------------------------|
D|---5--3---------5-3-5--|---5-3--5-------1--3----|
A|-----------------------|---------------------3~-|
D|-3~------1-3-3~--------|-3~---------0-0~--------|

e|------------------------|-------------------------|
B|------------------------|-------------------------|
G|------------------------|-------------------------|
D|----5--3---------5-3-5--|----5-3-5--------5--3----|
A|------------------------|----------------------3~-|
D|--3~------1-3-3~--------|--3~---------3-3~--------|

Main Chords
    (F5)   (D#5)    (C5)    (A5)   (G#5)
e|-------|-------|-------|-------|-------|
B|-------|-------|-------|-------|-------|
G|-------|-------|-------|-------|-------|
D|---3---|---13--|---10--|---8---|---6---|
A|---3---|---13--|---10--|---8---|---6---|
D|---1---|---11--|---8---|---6---|---4---|

Verse (Guitar 2)
F5                D#5      
Heavenís gates wonít open up for me 
F5                D#5      
With these broken wings Iím falliní
F5    D#5       F5    D#5
And all I see is you
F5                    D#5
These city walls ainít got no love for me
F5                    D#5
Iím on the ledge of the eighteenth story
F5    D#5       F5   (no guitar)   
All I need is you    Come please Iím calliní 
F5    D#5       F5          (no guitar)  
And oh I scream for you    hurry Iím falliní

Chorus (Both Guitars)
C5       D#5       A#5              F5
Show me what its like (to be the last one standing)
    C5       D#5       A#5              F5
And teach me wrong from right (and Iíll show you what I can be)
    G#5      D#5        F5                           C5      D#5 
And say it for me, say it to me.  And ill leave this life behind me.
G#5        D#5       F5
Say it if itís worth saviní me.

Intro/Verse (Guitar 1)
e|-----------------------|------------------------|
B|-----------------------|------------------------|
G|-----------------------|------------------------|
D|---5--3---------5-3-5--|---5-3--5-------1--3----|
A|-----------------------|---------------------3~-|
D|-3~------1-3-3~--------|-3~---------0-0~--------|

e|------------------------|-------------------------|
B|------------------------|-------------------------|
G|------------------------|-------------------------|
D|----5--3---------5-3-5--|----5-3-5--------5--3----|
A|------------------------|----------------------3~-|
D|--3~------1-3-3~--------|--3~---------3-3~--------|
[ Tab from: http://www.guitartabs.cc/tabs/n/nickelback/savin_me_tab_ver_5.html ]
Verse (Guitar 2)
F5                D#5      
Prison gates wonít open up for me
F5                D#5      
On these hands and knees Iím crawliní
F5    D#5       F5    D#5
Oh, I reach for you
F5                    D#5
Well Iím terrified of these four walls
F5                    D#5
These iron bars canít hold my soul in
F5    D#5       F5   (no guitar)   
And oh I scream for you   come please Iím calliní 
F5    D#5       F5          (no guitar)  
And all I need from you    hurry Iím falliní


Chorus (Both Guitars)
C5       D#5       A#5              F5
Show me what its like (to be the last one standing)
    C5       D#5       A#5              F5
And teach me wrong from right (and Iíll show you what I can be)
    G#5      D#5        F5                           C5      D#5 
And say it for me, say it to me.  And ill leave this life behind me.
G#5        D#5       F5
Say it if itís worth saviní me.

Solo
e|------------------------------------------------------------------|
B|------------------------------------------------------------------|
G|------------------------------------------------------------------|
D|-5br-3---3-(5)-5br-3---3--(5)-5br-3---3---------5b3-3---5br-3---3-|
A|-------6-------------6--------------6---3-3-3-6-------6-------6---|
D|------------------------------------------------------------------|

e|------------------------------------------------------|
B|------------------------------------------------------|
G|------------------------------------------------------|
D|----------5b.r-3--3/5-5-5-5/6-6-6-6/8-8-8-8/10-10-10--|
A|-3-3-3--6---------------------------------------------|
D|------------------------------------------------------|

e|-------------------------------------------------------------------|
B|-8b.r-6----6-(8)-8b.r-6---6-(8)-8b.r-6---6-(8)----------8b.r-6-6---|
G|--------8---------------8--------------8-------5-5-5-8----------8--|
D|-------------------------------------------------------------------|
A|-------------------------------------------------------------------|
D|-------------------------------------------------------------------|

e|------------5-5-5-5-8\5-6-8--/13~~~--|
B|--8-8-8-8----------------------------|
G|-------------------------------------|
D|-------------------------------------|
A|-------------------------------------|
D|-------------------------------------|

Intro/Verse (Guitar 1)
e|-----------------------|------------------------|
B|-----------------------|------------------------|
G|-----------------------|------------------------|
D|---5--3---------5-3-5--|---5-3--5-------1--3----|
A|-----------------------|---------------------3~-|
D|-3~------1-3-3~--------|-3~---------0-0~--------|

e|------------------------|-------------------------|
B|------------------------|-------------------------|
G|------------------------|-------------------------|
D|----5--3---------5-3-5--|----5-3-5--------5--3----|
A|------------------------|----------------------3~-|
D|--3~------1-3-3~--------|--3~---------3-3~--------|

All I need is you    Come please Iím calliní 
And oh I scream for you    hurry Iím falliní

Chorus (Both Guitars)
C5       D#5       A#5              F5
Show me what its like (to be the last one standing)
    C5       D#5       A#5              F5
And teach me wrong from right (and Iíll show you what I can be)
    G#5      D#5        F5                           C5      D#5 
And say it for me, say it to me.  And ill leave this life behind me.
G#5        D#5       F5
Say it if itís worth saviní me.

(From G#5 play that bit twice)

Comments