Nickelback - Savin Me Chords & Tabs

 

Savin Me Chords & Tabs

Nickelback Chords & Tabs

Version: 1 Type: Tab 0 ratings
1 star 2 stars 3 stars 4 stars 5 stars
comments

Savin Me Tab

   
Savin Me - Nickelback
1 step down tuning (DGCFAD)
Tabbed By YoYoJoe

Main Riff
|----------------------------------------|
|----------------------------------------|
|---2-0--------2-0-2---2-0--2-------0----|
|---------------------------------3------|
|-------------------------------------5~-|
|-3------0-1-3-------3--------0-0--------|

|----------------------------------------|
|----------------------------------------|
|---2-0--------2-0-2---2-0--2-----2-0----|
|----------------------------------------|
|-------------------------------------5~-|
|-3------0-1-3-------3--------3-3--------|

Chorus Chords:
|-3-0-0-1-|
|-3-1-1-1-|
|-0-2-0-2-|
|-0-2-2-3-|
|-2-0-3-3-|
|-3-----1-|

(clean)
G       Am       C               F
Show me what its like (to be the last one standing)
    G        Am         C                       F
And teach me wrong from right (and ill show you what i can be)
(distortion)
    G              Am           C                    F x x  G x x
And say it for me, say it to me.  And ill leave this life behind me.
G             Am           G
Say it if its worth saving me.
[ Tab from: http://www.guitartabs.cc/tabs/n/nickelback/savin_me_tab.html ]
Solo:
|--------------------------------------------------------------------|
|--------------------------------------------------------------------|
|--------------------------------------------------------------------|
|-7hb-r-5---5-7hb-r-5---5-7hb-r-5---5----------7hb-5-5---7hb-r-5---5-|
|---------8-----------8-----------8---5-5-5--8---------8---------8---|
|--------------------------------------------------------------------|

|---------------------------------------------------------|
|---------------------------------------------------------|
|---------------------------------------------------------|
|---------7hb-r-5--5/7-7-7-7/8-8-8-8/10-10-10-10/12-12-12-|
|-5-5-5-8-------------------------------------------------|
|---------------------------------------------------------|

|----------------------------------------------------------------|
|-10hb-r-8----8-10hb-r-8----8-10hb-r-8----8----------10hb-8-8----|
|----------10------------10------------10---7-7-7-10----------10-|
|----------------------------------------------------------------|
|----------------------------------------------------------------|
|----------------------------------------------------------------|

|-------------7-7-7-7-10\7-8-10-14fb---|
|-10-10-10-10--------------------------|
|--------------------------------------|
|--------------------------------------|
|--------------------------------------|
|--------------------------------------|

Now basically play the chorus til the end.
Nickelback is an awsome band and this is going to be their best cd yet.  I cant Wait!
Comments