Nickelback - Savin Me Chords & Tabs

 

Savin Me Chords & Tabs

Nickelback Chords & Tabs

Version: 1 Type: Bass Tab 0 ratings
1 star 2 stars 3 stars 4 stars 5 stars
comments

Savin Me Bass Tab

Nickelback - All the Right Reasons
Track 5    - Savin' Me
Tuning     - Standard

Contributed by Oh_Nutz

This is my first tab i have ever made.

Sure, i know its not perfect, but its sounds okay.
After you check it out, rate it please.

Intro ( No Bass ) x2

Verse x3

G|---------------------------------------------------|
D|---------------------------------------------------|
A|-4-------1-----------------------------------------|
E|-----4-4-----1-1-3-3-------------------------------|

Pre Chorus x2

G|---------------------------------------------------|
D|---------------------------------------------------|
A|-4-------1-----------------------------------------|
E|-----4-4-------------------------------------------|

Chorus x1

G|----------------------------------------------------|
D|-6-6-6-6----------------------------6-6-6-6---------|
A|---------6-6-6-8---8-8-8--------------------6-6-6-8-|
E|-------------------------8-8-10-10------------------|

Verse x3
[ Tab from: http://www.guitartabs.cc/tabs/n/nickelback/savin_me_btab.html ]
Pre Chorus x2

Chorus x1

Instrumental

G|---------------------------------------------------|
D|-6-6-6-6-------8---8-8-8---------------------------| ( x 3 )
A|---------6-6-6-----------8-8-10-10-----------------|
E|---------------------------------------------------|

Then...

G|---------------------------------------------------|
D|-6-6-6-6-------8-----------------------------------|
A|---------6-6-6-------------------------------------|
E|---------------------------------------------------|

Pre Chorus ( No Bass )

Final Chorus

G|---------------------------------------------------|
D|-6-6-6-6-------------------------------------------| ( x 5 )
A|---------6-6-6-8---8-8-8---------------------------|
E|-------------------------8-8-10-10-----------------|

Then...


G|---------------------------------------------------|
D|-6-6-6-6-------------------------------------------|
A|---------6-6-6-8-----------------------------------|
E|---------------------------------------------------|
Comments