Nickelback - Photograph Chords & Tabs

 

Photograph Chords & Tabs

Nickelback Chords & Tabs

Version: 3 Type: Tab 0 ratings
1 star 2 stars 3 stars 4 stars 5 stars
comments

Photograph Tab

   
Ok, here's the Drop C (CGCFAd) ofNicelbacks song Photograph

Photograph 

Intro (clean acoustic) 

Ebsus 
d|--8--8---|
A|-10--10--|
F|-10--10--|
C|-10--10--|
G|--8--8---|
C|---------|

Verse 1 & Verse 2 (clean acoustic)

Ebsus Eb Ab     Dbsus Db Gb
d|-8--8--(8)(x)-|--6--6--(6)(x)--|
A|-8-10---8--8--|--6--8---6--6---|
F|10-10---9--9--|--8--8---7--7---| Repeat as needed
C|10-10--10-10--|--8--8---8--8---|
G|-8--8--10-10--|--6--6---8--8---|
C|--------------|----------------|

Chorus (light distortion Electric guitar)

d|---------|-----------|----------|----------|
A|---------|-----------|----------|----------|
F|-10-12-10|-(12)12----|--8-10-8--|-10-10-10-| Repeat as needed
C|-10-10-10|--10-12-10-|--6-6--8--|--8-10--8-|
G|--8-8--8-|--10-10-10-|--4-4--6--|--8--8--8-|
C|---------|--10-10-10-|----------|--8--8--8-|


Post chorus riff
      Clean        Light distortion   Overdrive
    ------------   ----------------  ----------
d|----10----10---|------------------|----------|
A|--8-----8------|--9--8----9--8----|-----8----|
F|---------------|------10------10--|-10----8--|
C|---------------|------------------|----------|
G|---------------|------------------|----------|
C|---------------|------------------|----------|

Verse 1 & Verse 2 (clean electric)
[ Tab from: http://www.guitartabs.cc/tabs/n/nickelback/photograph_tab_ver_3.html ]
Ebsus Eb Ab     Dbsus Db Gb
d|-8--8--(8)(x)-|--6--6--(6)(x)--|
A|-8-10---8--8--|--6--8---6--6---|
F|10-10---9--9--|--8--8---7--7---| Repeat as needed
C|10-10--10-10--|--8--8---8--8---|
G|-8--8--10-10--|--6--6---8--8---|
C|--------------|----------------|

Chorus (light distortion on electric guitar)

d|---------|-----------|----------|--------|
A|---------|-----------|----------|--------|
F|-10-12-10|-(12)12----|--8-10-10-|--8-8-8-| Repeat as needed
C|-10-10-10|--10-12-10-|--8-8--8--|--6-8-6-|
G|--8-8--8-|--10-10-10-|--6-6--6--|--6-6-6-|
C|---------|--10-10-10-|----------|--6-6-6-|

Bridge (first part) (no vocals)

Ebsus Eb Ab     
d|-8--8--(6)(6)-|
A|-8-10---6--8--|
F|10-10---8--8--| play once
C|10-10---8--8--|
G|-8--8---6--6--|
C|--------------|

Bridge (second part) (Vocals)

Ebsus Eb Ab     Dbsus Db Gb
d|-8--8--(8)(x)-|--6--6--(6)(x)--|
A|-8-10---8--8--|--6--8---6--6---|
F|10-10---9--9--|--8--8---7--7---| Repeat as needed
C|10-10--10-10--|--8--8---8--8---|
G|-8--8--10-10--|--6--6---8--8---|
C|--------------|----------------|

   Ebsus  Ab       Dbsus  Gb (strum once)
d|------8----(8)-|--6---no--|
A|-----8-----8---|--6-------|
F|---10-----9----|--8---gui-| Repeat as needed
C|-10-----10-----|--8---tar-|
G|8-----10-------|--6-------|
C|---------------|----------|

Outro (very clean)

Verse 1 & Verse 2 (clean acustic)

Ebsus Eb Ab     Dbsus Db Gb
d|-8--8--(8)(x)-|--6--6--(6)(x)--|
A|-8-10---8--8--|--6--8---6--6---|
F|10-10---9--9--|--8--8---7--7---| Repeat as needed
C|10-10--10-10--|--8--8---8--8---|
G|-8--8--10-10--|--6--6---8--8---|
C|--------------|----------------|
Comments