Nickelback - Old Enough Chords & Tabs

 

Old Enough Chords & Tabs

Nickelback Chords & Tabs

Version: 2 Type: Tab 0 ratings
1 star 2 stars 3 stars 4 stars 5 stars
comments

Old Enough Tab

   
NICKELBACK - Old Enough
Tuning: D,A,D,G,B,E (drop D)

IMPORTANT:  For the solo and rythm, i tried to write this tab differently.  I
wrote this tab as if the song is 4/4 time with the quarter note at about 144 on
a metronome.  In the solo part, wherever there is a "z", it is an empty beat.
The z doesnt stand for anything, its just an empty 1/8 note.  Every note in the
solo represents an 1/8th note as well as a "z".  If you count each beat this way,
it should be a lot easier to match the rythms in the solo.  (let me know if this helps).

There are a couple of 1/16th note grace notes in the solo that i did not add but
you can hear the song and put them in as you wish.  During the verses, there are
also slight harmonics or percussive strums that vary so much, you could probably
put them wherever you want.  whew.  enough explaining :)  here's the tab:


Intro: (dry distortion)
----|-------------------------------------------
----|--------*----------------------------------
----|--0-0----0-0---0-00-0-0--------------------
--0-|-1--1/3----3/5-5-55-5-5--------------------  x6  (on 6th time, stop at
----|-------------------------------------------       the *)
----|-------------------------------------------

Verse/Chorus (distortion)
------------------------------|-------------------|
--(same pattern)----(1st time)|--(2nd time)-------|
--------------------5--------o|--5----------------| x2
--5--5-555--8--3----5--------o|--5-x8-------------|
--5zz5z555--8--3----3---------|--3----------------|
--5--5-555--8--3--------------|--(palm muted)-----|

intro x 5

verse x 2

bridge
--------------------------------------------------
--------------(palm muted)------------------------
--5-----------3-----------------------------------
--5x8---1-----3x8---1----3------------------------
--3-----1x8---1-----1x4--3x4----------------------       
--------1-----------1----3------------------------



[ Tab from: http://www.guitartabs.cc/tabs/n/nickelback/old_enough_tab_ver_2.html ]
solo (played with verse in background) (note timing)
--------------------------------------------------
--------------------------------------------------
--------------3-----------------------------------
--z-z-z-----3---5-z-z-z-z-z-8-7-7-----------------
--------3-5---------------------------------------
--------------------------------------------------

--------------------------------------------------
--------------------------------------------------
--------------------------------------------------
--(7)-z-z-7/8-8-8-8/10-10-10-10-8-----------------
----------------------------------10-10-8---------
--------------------------------------------------

--------------------------------------------------
--------------------------------------------------
---------------10-z-12\10-----------------10------
---------10/12------------12-10-12-z-12-z---------
--10-z-z------------------------------------------
--------------------------------------------------

-----------------------------------------------------
----------------------------------11-----------------
--(10)----10----10----10-10-10-12----10-12-10--------
-------12----12----12-------------------------12-10--
-----------------------------------------------------
-----------------------------------------------------

--------------------------------------------------
--------------------------------------------------
--------------------------------------------------
--------------------------------------------------
--13-z-z-z-z-z-z-13-12-z-z-z-z-z-z-/15-(faded out)
--------------------------------------------------

End of solo plucking (distortion but clear notes)
--------------------------------------------------
--------8-z-------------------------(palm mute----
------7-----7-----------10-z----------------------
--------------5-z-----8------8------3---5---------
----5---------------8----------8----3x8-5x8-------
--5---------------8-----------------3---5---------

Verse x 2

Final note (fade)
--------------------------------------------------
--------------------------------------------------
--------------------------------------------------
--3-----------------------------------------------
--3-----------------------------------------------
--0-----------------------------------------------



And there it is.  All feedback is welcome, have fun with it.  This
should be pretty close, but if something could be done easier or
sounds better feel free to leave a comment.

-Davery
Comments