Nickelback - Old Enough Chords & Tabs

 

Old Enough Chords & Tabs

Nickelback Chords & Tabs

Version: 1 Type: Chords 0 ratings
1 star 2 stars 3 stars 4 stars 5 stars
comments

Old Enough Chords

   
Nickelback/Old Enough

Intro
e -------------------------------------|
B -------------------------------------|
G --------0-----0--------0-----0-----0-|x6
D ------0-----0--------0-----0-----0---|
A -------------------------------------|
E -0-1------3-----/7\5-----5-----5-----|

Verse
She's old enough
She knows enough
She's thrown up
So throw her
G     Bb
Out to me
F                        C
And i'll treat her like she was mine
G          Bb
not my Beliefe
F                         C
You got your way and i'll get mine

Chorus
G         Bb
And I can't eat
F
I can't sleep
C
I want to thank you for commin
G                  Bb
And why do we always laugh
F                   C
while where in this discussion

Intro
2nd Verse
Should've known enough
Never grown enough
alone enough
to no my
G       Bb
Way will be
F                 C
The path i wanted to try
G            Bb
If it fails to be
F                     C
Good for me then i'd rather die

Chorus
G         Bb
And I can't eat
F
I can't sleep
C
Oh but to thank you for commin
G                  Bb
And why do we always laugh
F                   C
while where in this discussion

G
Back roads always lead to somethin
Bb
Bury her cause her time was cut thin
F
All the while we just stood and stared
C
Never cared to help we just got carried away
[ Tab from: http://www.guitartabs.cc/tabs/n/nickelback/old_enough_crd.html ]
Solo
e -----------------------------------------------|
B -----------------------------------------------|
G ---------3---------3p2-2-------2-3-3-3-3-5-5-5-|
D -------3---5-----------------------------------|
A -1-3/5-----------------------------------------|
D -----------------------------------------------|

e -----------------------------------------------|
B ------------------------6---8p6--------------6-|
G 5-3-3-3-------------5/7---------7-5-7---7-7----|
D --------5p3h5----------------------------------|
A -----------------------------------------------|
D -----------------------------------------------|

e --------------------6-------------------------|
B ---6---6---6----6/8-----8p6-------------------|
G -7---7---7---7--------------7\5\3-------------|
D ----------------------------------------------|
A ----------------------------------------------|
D ----------------------------------------------|

Play right after solo is done
e -------------------------------------|
B -------------------------------------|
G --------0-----0--------0-----0-----0-|
D ------0-----0--------0-----0-----0---|
A -------------------------------------|
E -0-1------3-----/7\5-----5-----5-----|

Lately it seems like my dreams are startin to die
It occured to me on the inside i guess so am i

Chorus
G         Bb
And I can't eat
F
I can't sleep
C
Oh but to thank you for commin
G                  Bb
And why do we always laugh
F                   C
well the last ones commin

G
Standin here with my two feet
Bb
Enjoy it now cause it won't repeat
F
someway Somehow the things that keep me alive
C
aren't livin here anymore

The song end on this
e -------|
B -------|
G -------|
D -1-----|
A -1-----|
D -1-----|
Comments