Nickelback - Not Yet Levin Chords & Tabs

 

Not Yet Levin Chords & Tabs

Nickelback Chords & Tabs

Version: 1 Type: Tab 0 ratings
1 star 2 stars 3 stars 4 stars 5 stars
comments

Not Yet Levin Tab

Hi all you guitar guys “n” girls I just had 2 tab this song it 2 good not 2 
Oh well here we go 
Tab by stuart pulham
Album and artist  nickelback  and the sate
Song not Levin yet



Just listen 2 it n it will make sense
e----------------------------------
b----------------------------------
g----------------------------------
d-2-2---0-2-2---0-2-2-----0-2-3-2-3-2-----2-2---0-2-2
a-2-2---0-2-2---0-2-2-----0-2-3-2-3-2-----2-2---0-2-2
d-2-2---0-2-2---0-2-2-----0-2-3-2-3-2-----2-2---0-2-2

[ Tab from: http://www.guitartabs.cc/tabs/n/nickelback/not_yet_levin_tab.html ]
e----------------------------------
b----------------------------------
g----------------------------------
d-0-5-5---0-5-5---0-5-5--------
a-0-5-5---0-5-5---0-5-5--------	
d-0-5-5---0-5-5---0-5-5—0-4-5-4-5


pre chorus
e----------------------------------
b----------------------------------
g----------------------------------
d-------------2-----------5--------
a-------------2-----------5--------	
d-------------2-----------5--------



chorus
e----------------------------------
b----------------------------------
g----------------------------------
d-2-2-2-----5-5-5—0-0-5-5-0
a-2-2-2-----5-5-5—0-0-5-5-0
d-2-2-2-----5-5-5—0-0-5-5-0
hope u av fun doin this cya 
peace!!

Comments