Nickelback - Never Again Chords & Tabs

 

Never Again Chords & Tabs

Nickelback Chords & Tabs

Version: 7 Type: Tab 0 ratings
1 star 2 stars 3 stars 4 stars 5 stars
comments

Never Again Tab

   
-------------------------------------------------------------------------------
			    Never Again  - NICKELBACK
-------------------------------------------------------------------------------

Tabbed by: Liam Dunning
Email:libmx02@aol.com

Tuning: C G C F A D

NOTE: 	If you decide just to play drop D play chords down two frets.
	It is easier to play drop D but if you're playing the whole album 
	Silver Side Up album, Nickelback always use drop C.


Intro: Bass for two bars then feed back from guitar signals guitar comes in.
	Use nice amounts of distortion.
D|---------------------------------------------------------------------------|
A|---------------------------------------------------------------------------|
F|---9-9-9-/-12-12-12-\-7-7-7------------------------------------------------|
C|---9-9-9-/-12-12-12-\-7-7-7---5-5-/-7--------------------------------------|
G|---7-7-7-/-10-10-10-\-5-5-5---5-5-/-7--------------------------------------|
C|------------------------------5-5-/-7--------------------------------------|

All Verses are just bass and drums.

Pre-Chorus:
[ Tab from: http://www.guitartabs.cc/tabs/n/nickelback/never_again_tab_ver_7.html ]
D|---------------------------------------------------------------------------|
A|---------------------------------------------------------------------------|
D|---7--7--7-----------------------------------------------------------------|
C|---7--7--7--------------------7--7--7--------------------------------------|
G|---5--5--5--------------------7--7--7--------------------------------------|
C|------------------------------7--7--7--------------------------------------|
    "Clenching his hands	shes just a woman, Never again"

Chorus:

D|---------------------------------------------------------------------------|
A|---------------------------------------------------------------------------|
F|----9-9-9-\-7-7-7--9-9-x-\-7-----------------------------------------------|
C|----9-9-9-\-7-7-7--7-9-7-\-5-5-5-------------------------------------------|
G|----7-7-7-\-5-5-5--7-7-7-\-5-5-5-------------------------------------------|
C|-------------------7-7-7-\-5-5-5-------------------------------------------|
	"Been there before, but not like this...."

Repeat Pre-Chorus after first two chorus'

Bridge: Comes after thrid chorus I think.

D|---------------------------------------------------------------------------|
A|---------------------------------------------------------------------------|
F|---------------------------------------------------------------------------|
C|----5-5-\-2----5-5-\-2----5-5-5-5-/-7-7-/-8-8------------------------------|
G|----5-5-\-2----5-5-\-2----5-5-5-5-/-7-7-/-8-8------------------------------|
C|----5-5-\-2----5-5-\-2----5-5-5-5-/-7-7-/-8-8------------------------------|


| /  slide up
| \  slide down
| h  hammer-on

Quite an easy Nickelback song this is 100% correct, there are bound to be a few
people who'll say "it's played in drop D" but if you have the Nickelback album
you'll know most of their songs are in drop C so I've decided to do it in drop
C. If you must play in drop D just play 2 frets down, simple.
Comments