Nickelback - Never Again Chords & Tabs

 

Never Again Chords & Tabs

Nickelback Chords & Tabs

Version: 2 Type: Tab 1 rating
1 star 2 stars 3 stars 4 stars 5 stars
comments

Never Again Tab

Band: Nickelback
Song: Never Again
Album: Silver Side Up
Tabbed By: Mike Elliot
Tuning: DADGBe

________________________________________________________________________


|-------------------------------------------------- 
|--------------------------------------------------
|-----7--7--7----10-10-10-----5--5--5--------------
|-----x--x--x-----x--x--x-----x--x--x-----3--3--5--
|-----5--5--5-----8--8--8-----3--3--3-----3--3--5--
|--0-----------0-----------0-----------0--3--3--5--
   PM          PM          PM          PM

--------------------------------------------------|
--------------------------------------------------|
-----7--7--7----10-10-10-----5--5--5--------------|
-----x--x--x-----x--x--x-----x--x--x-----5--5--3--|
-----5--5--5-----8--8--8-----3--3--3-----5--5--3--|
--0-----------0-----------0-----------0--5--5--3--|
   PM          PM          PM          PM

_________________________________________________________________________


|----------------------------------------------
|----------------------------------------------
|--5-------5--5--5--5--5--5--5--5--5--5--------
|--5-------5--5--5--5--5--5--5--5--5--5--------
|--3-------3--3--3--3--3--3--3--3--3--3--------
|----------------------------------------------
[ Tab from: http://www.guitartabs.cc/tabs/n/nickelback/never_again_tab_ver_2.html ]
-----------------------------------------------------|
-----------------------------------------------------|
-----------------------------------------------------|
--5--5--5--5--5--5--5--5--5--5--5--5--5--5--3--3--0--|
--5--5--5--5--5--5--5--5--5--5--5--5--5--5--3--3--0--|
--5--5--5--5--5--5--5--5--5--5--5--5--5--5--3--3--0--|

__________________________________________________________________________


|-------------------------------------------------|
|-------------------------------------------------|
|----7--7--7----5--5--5---------------------------|
|----7--7--7----5--5--5----5--5--5----3--3--3--3--|
|----5--5--5----3--3--3----5--5--5----3--3--3--3--|
|--------------------------5--5--5----3--3--3--3--|


|----------------------------------------------
|----------------------------------------------
|--5-------5--5--5--5--5--5--5--5--5--5--------
|--5-------5--5--5--5--5--5--5--5--5--5--------
|--3-------3--3--3--3--3--3--3--3--3--3--------
|----------------------------------------------

____________________________________________________________________________


|---------------------------------------------|
|---------------------------------------------|
|---------------------------------------------|
|--3--3--0----3--3--0----3--3--0--5--3--5--6--|
|--3--3--0----3--3--0----3--3--0--5--3--5--6--|
|--3--3--0----3--3--0----3--3--0--5--3--5--6--|

_____________________________________________________________________________


|----------------|
|----------------|
|----------------|
|--5--3--5/6--0--|
|--5--3--5/6--0--|
|--5--3--5/6--0--|

_____________________________________________________________________________
Comments