Nickelback - Never Again Chords & Tabs

 

Never Again Chords & Tabs

Nickelback Chords & Tabs

Version: 1 Type: Tab 0 ratings
1 star 2 stars 3 stars 4 stars 5 stars
comments

Never Again Tab

   
Artist: Nickleback
Song: Never Again
Album: Silver Side Up
Tabbed: Scarface187
E-Mail: scarface_cdc@hotmail.com

Drop D Tuning(DADGBe)
e :-------------------------------------
B :-------------------------------------
G :-------------------------------------
D :---777---101010---555---------Repeat:
A :---555---8-8-8----333---333----------
D :------------------------333----------
    Intro and Chorus



e :----------------------------------------------------------------
B :----------------------------------------------------------------
G :----------------------------------------------------------------
D :-3-3-3-3-3-3-3-3-3-3-3-3-3-3-3-3--------------------------------
A :-3-3-3-3-3-3-3-3-3-3-3-3-3-3-3-3-5-5-5-5-5-5-5-5-5-5-5-5-5-5-5-5
D :---------------------------------5-5-5-5-5-5-5-5-5-5-5-5-5-5-5-5
    Pre-Chorus #1





e :-------------------------
B :-------------------------
G :--7-7-7-5-5-5------------
D :--7-7-7-5-5-5------------
A :--5-5-5-3-3-3-5-5-5-3-3-3
D :--------------5-5-5-3-3-3
    Pre-Chorus #2


[ Tab from: http://www.guitartabs.cc/tabs/n/nickelback/never_again_tab.html ]
e :----------------------------------
B :----------------------------------
G :----------------------------------
D :-3-3-0-3-3-0-3-3-0-5-3-5-6-5-3-6-0
A :-3-3-0-3-3-0-3-3-0-5-3-5-6-5-3-6-0
D :-3-3-0-3-3-0-3-3-0-5-3-5-6-5-3-6-0
    Breakdown


e :--------
B :--------
G :--------
D :-5-3-6-0
A :-5-3-6-0
D :-5-3-6-0
   "Father a name you haven't earned yet" 


e :--------------------------
B :--------------------------
G :--------------------------
D :-3-3-3-0-3-3-0-3-3-0-5-3-6
A :-3-3-3-0-3-3-0-3-3-0-5-3-6
D :-3-3-3-0-3-3-0-3-3-0-5-3-6
    Outro

    This is a great song it is easy to play and has as some great lyrics.
    Listen to the song for timing and peacing the different part together.
    There is some feedback and palm mutted picking, it sounds random, so  
    just mess around with that stuff.
    If you have any corrections e-mail me
    Keep on Pickin' and Grinin'



---TABS, LYRICS AND CHORDS Detail Data-----------------------------------
Automatically imported by TLC. Check out TLC at www.tabslyricschords.com!

---TLC DATA - Do Not Modify Between Lines--------------------------------
    Title: 
   Author: 
Copyright: 
    Album: 
 Category: 
    Tempo: 
   Tabber: 
      Key: 
     Memo: 
  LMargin: 3
  RMargin: 0
   Tuning: 
---TLC DATA - Do Not Modify Between Lines-------------------------------
Comments