Nickelback - Mistake Chords & Tabs

 

Mistake Chords & Tabs

Nickelback Chords & Tabs

Version: 4 Type: Tab 0 ratings
1 star 2 stars 3 stars 4 stars 5 stars
comments

Mistake Tab

Nickelback - Mistake

e|-------------------------------------------0-------0-------------
B|----------------3-----------------3--3-----3-------3---3--3----3-
G|---0------0------0--------0--------0-------0-------0-x-0--3--3---
D|--5------5------5--------3---3----2-2------2-------2-2-----3-----
A|--6------6------6-----0--4--------3--------3-------3--------5----
E|------------------------------------------------------------3----

e|---------3---------3----------------------------------0------0------
B|-------3---------3---------3--------(0)---------3-------3----3------
G-------3---------3---------3--0-------0--0-----0----0------0--0------
D|-----5--5-----5--5------5--5-------4--------3----------------3------
A|--6---------6---------6----------3--------2------------------2------
E|--------------------------------------------------------------------

e|----------
B|--3---3---
G|--0---3---
D|--3---3---
A|--2---5---
E|------3---


Chorus: The chords are
[ Tab from: http://www.guitartabs.cc/tabs/n/nickelback/mistake_tab_ver_4.html ]
e|----------------------------------------------0-------0-------------
B|---------------------------------------------3--3-------3--3------3-
G|---------8--------------8-------0-----------0----------0--0-------0-
D|-8---3---8-------8--3---8-----3---3-----2--2-------2--2--------2--2-
A|-8---3---6-------8--3---6---4---------3----------3-----------3------
E|-6---1---6-------6--1---6-------------------------------------------

e|----------------
B|-x--3--3----3---
G|-x--0--3--3-----
D|-x--2--3--------
A|----3--5--------
E|-------3--------

Then there are a verse, like this:

e|--3-3----3-3----3-3-----------3-3----3-3----3-3----0---------------
B|--3-3----3-3----3-3----0-0----1-1----1-1----1-1----1---3-----------
G|--3-3----3-3----3-3----0-0----0-0----0-0----0-0----0---3-----------
D|--5-5----5-5----5-5----3-3----2-2----2-2----2-2----2---3-----------
A|--6-6----6-6----6-6----4-4----3-3----3-3----3-3----3---5-----------
E|-------------------------------------------------------3-----------
Comments