Nickelback - Leader Of Men Chords & Tabs

 

Leader Of Men Chords & Tabs

Nickelback Chords & Tabs

Version: 2 Type: Tab 1 rating
1 star 2 stars 3 stars 4 stars 5 stars
comments

Leader Of Men Tab

Artist:  Nickelback

Song:  Leader Of Men

Drop D tuning

intro 1
e-----------
B-----------
G-----------       (x18)
D--0h2-----
A-----------
E----------0 


after 7 times another guitar comes in strumming
intro 2
e---------------------
B---------------------
G---------------------
D--0-0h2--2-2--2-2-
A--0-0h2--2-2--2-2-
E--0-0h2--2-2--2-2-

[ Tab from: http://www.guitartabs.cc/tabs/n/nickelback/leader_of_men_tab_ver_2.html ]
this is how the whole chorus goes 
e----------------------------------------------------------------------
B----------------------------------------------------------------------
G----------------------------------------------------------------------
D--0h2-2-2-2-2-2-2-2-5-5-5-5-5-5-5-5-0-0-0-0-0-0-0-0-2-2-2-2-2-2-2
A--0h2-2-2-2-2-2-2-2-5-5-5-5-5-5-5-5-0-0-0-0-0-0-0-0-2-2-2-2-2-2-2
E--0h2-2-2-2-2-2-2-2-5-5-5-5-5-5-5-5-0-0-0-0-0-0-0-0-2-2-2-2-2-2-2

just use a little bit of rhythm and timing to get the beat down with the vocals.
that’s pretty much it.  any questions email me at crazykingdude@yahoo.com
Comments