Nickelback - Just For Chords & Tabs

 

Just For Chords & Tabs

Nickelback Chords & Tabs

Version: 1 Type: Tab 0 ratings
1 star 2 stars 3 stars 4 stars 5 stars
comments

Just For Tab

"Just Four" by Nickelback
Tabbed by ross hunter rossihunterio@hotmail.com
Note: Drop D tuning

       Intro:                                                           
E---|--------------------------|--------------|--------------|----------
B---|--------------------------|--------------|--------------|----------
G---|--------------------------|--------------|--------------|----------
D---|--x--x--x--x--x--x--x--x--|--4--4--4--4--|--6--7--6--7--|--2--2----
A---|--x--x--x--x--x--x--x--x--|--4--4--4--4--|--6--7--6--7--|--2--2----
D---|--x--x--x--x--x--x--x--x--|--4--4--4--4--|--6--7--6--7--|--2--2----
                                                                        

                                      4x                                
E---------|---------------------------||-----------------|--------------
B---------|---------------------------||-----------------|--------------
G---------|--------------------------*||-----------------|--------------
D---2--2--|--x--x--x--x--x--x--x--x--*||--4--\--2--\--1--|--------------
A---2--2--|--x--x--x--x--x--x--x--x---||--4--\--2--\--1--|--------------
D---2--2--|--x--x--x--x--x--x--x--x---||--4--\--2--\--1--|--------------
                                                                        
[ Tab from: http://www.guitartabs.cc/tabs/n/nickelback/just_for_tab.html ]
                                                              
E------------|----------|----------------|-----------------|------------
B------------|----------|----------------|-----------------|------------
G-Distortion-|----------|----------6-----|--------7--6-----|------------
D------------|--6h7--6--|--6h7--6--------|--7--6-----------|--6h7--6----
A------------|----------|-------------7--|--------------7--|------------
D------------|----------|----------------|-----------------|------------
                                                                        

                                                                        
E---|-------------------------|-------------------|---------------------
B---|-------------------------|-------------------|--------------9------
G---|----------------------9--|----------7--6-----|--------7--6---------
D---|--6h7--6-----------9-----|--6h7--6-----------|--7--6---------------
A---|----------7--7--7--------|----------------7--|---------------------
D---|-------------------------|-------------------|---------------------
                                                                        

                                                              
E-------------|------------------------------|---------------------------
B---10--9/12--|------------------------------|---------------------------
G-------------|--------7--6-------Distortion-|---------------------------
D-------------|--7--6------------------------|---------------------------
A-------------|--------------7--9------------|---------------------------
D-------------|------------------------------|---------------------------
                                                                        


Comments