Nickelback - Just For Chords & Tabs

 

Just For Chords & Tabs

Nickelback Chords & Tabs

Version: 1 Type: Bass Tab 0 ratings
1 star 2 stars 3 stars 4 stars 5 stars
comments

Just For Bass Tab

   
Song: "Just For"
Artist: Nickelback
Album: Silver Side Up (track 5)
Tabbed by: Blake(impact@houston.rr.com)

This is my first tab ever, so cut me some slack. Here we go with
"Just For", a great Nickelback song off their new album, Silver Side Up.

Tuning: Drop-D

Intro:
G|------------|------------------------------------|
D|------------|-----------------------------------*|
A|------------|-----------------------------------*|   
D|---XXXXXXXX-|-33333--5h66-5h66--11111-XXXXXXXX---|

G|---------------|
D|---------------|
A|---------------|
D|---3--1--3--1--|
End Intro

Verse1 *=play 8x
G|---------------|        |------------------------|
D|---------------| Repeat |------------------------|
A|---------------|   7x   |------------------------|
D|---3--5-6--1*--|        |---3--5-6--1-XXX-X-XXX--|
End Verse1

Chorus1
G|-------------------------|
D|-------------------------|
A|-------------------------|
D|---3--6--1-11--XXXXXXXX--|

G|-------------------------------------|
D|-------------------------------------|
A|-------------------------------------|
D|--33333--5h66-5h66--11111-XXXXXXXX---|

G|--------------------------|
D|-------------------------*|
A|-------------------------*|
D|---3--6--1-11--XXXXXXXX---|

G|---------------------------------------|
D|--------------------------------------*|
A|--------------------------------------*|
D|--33333--5h66--5h66--11111-XXXXXXXX----|

G|-------------------------------|
D|-------------------------------|
A|-------------------------------|
D|---3--1--3--111-1-111--XXXXXXX-|
End Chorus1


Verse2 *=play 8x
G|---------------|        |------------------------|
D|---------------| Repeat |------------------------|
A|---------------|   7x   |------------------------|
D|---3--5-6--1*--|        |---3--5-6--1-XXX-X-XXX--|
End Verse2

Chorus2
G|-------------------------|
D|-------------------------|
A|-------------------------|
D|---3--6--1-11--XXXXXXXX--|

G|-------------------------------------|
D|-------------------------------------|
A|-------------------------------------|
D|--33333--5h66-5h66--11111-XXXXXXXX---|
[ Tab from: http://www.guitartabs.cc/tabs/n/nickelback/just_for_btab.html ]
G|--------------------------|
D|-------------------------*|
A|-------------------------*|
D|---3--6--1-11--XXXXXXXX---|

G|--------------------------------------|
D|--------------------------------------| Repeat
A|--------------------------------------|   4x
D|--33333--5h66-5h66--11111-XXXXXXXX----|

G|----------------|
D|----------------|
A|----------------|
D|---3--1--3--1---|
End Chorus2

Interlude *-play 8x
G|---------------|------------------------|
D|---------------|------------------------|
A|---------------|------------------------|
D|---3--5-6--1*--|---3--5-6--1111-1\------|

G|---------------|--------------------------|
D|---------------|--------------------------|
A|---------------|--------------------------|
D|---3--5-6--1*--|---3--5-6--111-1-111-1/---|
End Interlude

Bridge
G|-------------------------------------|
D|-------------------------------------| Repeat
A|---------------------------111-222---|   2x
D|--33333--5h66-5h66--11111------------|

G|------------------|
D|------------------| Repeat
A|------------111---|   4x
D|---3-1-6-1--------|

Chorus3/Outro
G|-------------------------|
D|-------------------------|
A|-------------------------|
D|---3--6--1-11--XXXXXXXX--|

G|-------------------------------------|
D|-------------------------------------|
A|-------------------------------------|
D|--33333--5h66-5h66--11111-XXXXXXXX---|

G|--------------------------|
D|-------------------------*|
A|-------------------------*|
D|---3--6--1-11--XXXXXXXX---|

G|--------------------------------------|
D|--------------------------------------| Repeat
A|--------------------------------------|   3x
D|--33333--5h66-5h66--11111-XXXXXXXX----|

G|-------------------------------|
D|-------------------------------|
A|-------------------------------|
D|--33333--5h66-5h66--11111111---|

End on
G|-------|
D|-------|
A|-------|
D|---1---|
And let it ring

That's it. I'm fairly sure it's accurate, but if you don't agree, 
then send any comments/corrections to impact@houston.rr.com
Look for more Nickelback bass tabs from me in the future. Have Fun!

Later,
Blake
Comments