Nickelback - How You Remind Me Chords & Tabs

 

How You Remind Me Chords & Tabs

Nickelback Chords & Tabs

Version: 8 Type: Tab 0 ratings
1 star 2 stars 3 stars 4 stars 5 stars
comments

How You Remind Me Tab

   
Tired of all the posers?  Here's the closest I could get to the real thang!  
Thanks to DA Guitar Dude for supplying the foundation for this one.

I've included the lyrics for the heck of it!

Dropped D tuning: D A D G B E

Verse
=====

[clean guitar]

E------------
B------------
G-5--5--3--3-
D-5--3--3--1-
A-3--3--1--1-
D----3-----1-

Never made it as a wise man
I couldn't cut it as a poor man stealing
Tired of living like a blind man
I'm sick of sight without a sense of feeling

E---3--------3--------1--------------
B-3---3----4---4----1---1------------
G-5-----5--5-----5--3-----3----------
D-5--------3--------3----------------
A-3--------3--------1----------------
D----------3-------------------------

And this is how you remind me
This is how you remind me
Of what I really am

When distorted comes in
E-----------------
B-----------------
G-3-3-3-3-3-3-3-3-
D-3-3-3-3-1-1-1-1-
A-1-1-1-1-1-1-1-1-
D---------1-1-1-1-
 ( P.M.  )

This is how you remind me
Of what I really am

Chorus
======

Distorted Guitars

E------------
B------------
G-5--3--3--5-
D-5--1--3--3-
A-3--1--1--3-
D----1-----3-
[ Tab from: http://www.guitartabs.cc/tabs/n/nickelback/how_you_remind_me_tab_ver_8.html ]
It's not like you to say sorry
I was waiting on a different story
This time I'm mistaken
for handing you a heart worth breaking

and I've [stop] been wrong [stop], i've been down,
to the bottom of every bottle
these five words in my head
scream "are we having fun yet?"


E------------
B------------
G-5--5--3--3-
D-5--3--3--1-
A-3--3--1--1-
D----3-----1-

yet, yet, yet, no, no
yet, yet, yet, no, no

Second Verse
=============
[same as first with arpeggio]

it's not like you didn't know that
I said I love you and I swear I still do
And it must have been so bad
Cause living with me must have damn near killed you

And this is how, you remind me
Of what I really am
This is how, you remind me
Of what I really am

[back to Chorus]

yet, yet, yet, no, no
yet, yet, yet, no, no

Break
=====
[back to clean guitar ]

[like intro ]

Never made it as a wise man
I couldn't cut it as a poor man stealing

E------------
B------------
G-5--8--10---
D-5--8--10---
A-3--6--8----
D-3--6--8----

And this is how you remind me
This is how you remind me

[with verse arpeggio part]

This is how you remind me
Of what i really am
This is how you remind me
Of what i really am

[Chorus with:]

are we having fun yet [3x]
[five words in my head]
Comments