Nickelback - How You Remind Me Chords & Tabs

 

How You Remind Me Chords & Tabs

Nickelback Chords & Tabs

Version: 7 Type: Tab 0 ratings
1 star 2 stars 3 stars 4 stars 5 stars
comments

How You Remind Me Tab

Nickelback
How You Remind Me

tabbed by Gamaliel Colon(inbredhatred@cs.com)



List of important stuff
 Guitar 1- Clean electric
 Guitar 2- Clean electric w/ leslie rotary cabinet
 Guitar 3- Distorted electric
 Guitar 4- Distorted electric w/ leslie rotary cabinet

   Intro/Main Riff  
   gtr.1
E|----3-3-3----3-3-3----1-1-1----1-1---------|
B|----3-3-3----3-3-3----1-1-1----1-1---------|
G|-5--5-5-5-5--5-5-5-3--3-3-3-3--3-3-3/5-----|
D|-5--5-5-5-5--5-5-5-3--3-3-3-3--3-3-3/5-----|
A|-3--3-3-3-3--3-3-3-1--1-1-1-1--1-1-0-------|
D|----------3--3-3-3--------0-1--1-1---------|


   Verse Fill 1
   gtr.1
E|-3------6------3-----------|
B|-3------6------3-----------|
G|-5------8------5-----------|
D|-5------8------5-----------|
A|-3------6------3-----------|
D|-3------6------------------|
 |                           |
 | gtr.2                     |
E|---3------1------3---------|
B|-----3------1------3-------|
G|-------5------3------5-----|
D|---------------------------|
A|---------------------------|
D|---------------------------|


   Prechorus part 1
   gtr.1 plays Main Riff

   gtr.2
E|-3-------3-------1----------------------------------|
B|----------------------------------------------------|
G|-----5-------5-------3------------------------------|
D|----------------------------------------------------|
A|----------------------------------------------------|
D|----------------------------------------------------|


    Prechorus fill 1
    gtr.2 plays prechorus part 1 last time

    gtr.3
E|---------------------|
B|---------------------|
G|---------------------|
D|-3-3-3-3-------------|
A|-1-1-1-1-1-1-1-1-----|
D|---------1-1-1-1-----|
   . . . . . . . . 


     Prechorus part 2
     gtr.3
E|-------------------------------------|
B|-------------------------------------|
G|-5-5-5-5---------3-3-3-3-------------|
D|-5-5-5-5-3-3-3-3-3-3-3-3-1-1-1-1-----|
A|-3-3-3-3-3-3-3-3-1-1-1-1-1-1-1-1-----|
D|---------3-3-3-3---------1-1-1-1-----|
   

     Chorus part 1 
     gtr.3
E|-----------------------------------------------------------------------|
B|-----------------------------------------------------------------------|
G|-5-5---------------3-3-3-3---------5-5-5-5---------3-3-3-3-------------|
D|-3-3------1-1------3-3-3-3-3-3-3-3-5-5-5-5-1-1-1-1-3-3-3-3-3-3-3-3-----|
A|-3-3------1-1------1-1-1-1-3-3-3-3-3-3-3-3-1-1-1-1-1-1-1-1-3-3-3-3-----|
D|----------1-1--------------3-3-3-3---------1-1-1-1---------3-3-3-3-----|

[ Tab from: http://www.guitartabs.cc/tabs/n/nickelback/how_you_remind_me_tab_ver_7.html ]
     Chorus part 2
     gtr.3
E|--------------------------------------------|
B|--------------------------------------------|
G|-5-------------------3--3--3-3--------------|
D|-5---------1---------3--3--3-3-3---3--------|
A|-3---------1---------1--1--1-1-3---3--------|
D|-----------1---------------0-0-3---3--------|
 |                                            |
 |   gtr.4                                    |
E|---3---------1---------1--------3-----------|
B|---------3---------1---------1--------3-----|
G|------5---------3---------3--------5--------|
D|--------------------------------------------|
A|--------------------------------------------|
D|--------------------------------------------|


     Verse Fill 2
     gtr.3
E|----------------------|
B|----------------------|
G|-5--------------------|
D|-5--------------------|
A|-3--(3)/6---(6)/8-----|
D|----------------------|


     Verse Fill 3
     gtr.2
E|-3-------1-----|
B|-3-------1-----|
G|-5-------3-----|
D|-5-------3-----|
A|-3-------1-----|
D|---------------|



     Interlude part 1
     gtr.1 plays main riff
 
     gtr.2 plays verse fill 3 with Leslie off

 
     Interlude part 2
     gtr.1
E|-3-------1-----1------3----6----8------|
B|-3-------1-----1------3----6----8------|
G|-5---5---3---3-3-3/5--5----8----10-----|
D|-5---5---3---3-3-3/5--5----8----10-----|
A|-3---3---1---1-1-0----3----6----8------|
D|-----3-------1-1------3----6----8------|


     Interlude part 3
     gtr.1
E|-3----6----8------|
B|-3----6----8------|
G|-5----8----10-----|
D|-5----8----10-----|
A|-3----6----8------|
D|-3----6----8------|


     Prechorus Fill 2
E|-----------------------|
B|-----------------------|
G|-5-5-5-5---------3-----|
D|-5-5-5-5-3-3-3-3-3-----|
A|-3-3-3-3-3-3-3-3-1-----|
D|---------3-3-3-3-------|



     Outro
     gtrs.2 & 4
E|-----------6-----|
B|--6------6-------|
G|-----3-5---------|
D|-----------------|
A|-----------------|
E|-----------------|







     Okay, here goes
     Structure to song


Part              gtr.1            gtr.2            gtr.3            gtr.4
Intro/1st Verse   Main riffx2
                  Verse Fill 1x1   Verse Fill 1x1
Prechorus         Main Riffx1      Verse Fill 1x1
                  Main Riffx1      Prechorus 1x1    Prechorus Fill 1x1
                                                    Prechorus 2x2
Chorus                                              Chorus 1x1
                                                    Chorus 2x2       Chorus Part 2x2
2nd Verse                                           Verse Fill 2x1
                                   Verse Fill 3x1
Prechorus                          Prechorus 1x1
                                   Prechorus 1x1    Prechorus Fill 1x1
                                                    Prechorus 2x2
Chorus                                              Chorus 1x1
                                                    Chorus 2x2       Chorus Part 2x2
Interlude         Main Riffx1
                  Interlude 1x1    Interlude 1x1
                  Interlude 2x1
                  Interlude 3x1
Prechorus                          Prechorus 1x1
                                   Prechorus 1x1    Prechorus Fill 1x1
                                                    Prechorus 2x1                   
                                                    Prechorus Fill 2x1
Chorus                                              Chorus 1x1
                                                    Chorus 2x4       Chorus Part 2x4
Outro                              Outro til end                     Outro til end
Comments