Nickelback - How You Remind Me Chords & Tabs

 

How You Remind Me Chords & Tabs

Nickelback Chords & Tabs

Version: 4 Type: Tab 0 ratings
1 star 2 stars 3 stars 4 stars 5 stars
comments

How You Remind Me Tab

----------------
Submit by Muska
Nickelback How you remind me.
Tabbed by xzibit_xzbt@hotmail.com.
----------------
So, this is my first tab, so dont worry if its wrong or something, just try to understand 
it, k? :) Thx.
----------------
Intro (acustic)
e---------------------------- 
B----------------------------
G----------------------------  
D--6------4---2-------------- 
A--4--4---2---2-------------- 
D-----2----------------------
[ Tab from: http://www.guitartabs.cc/tabs/n/nickelback/how_you_remind_me_tab_ver_4.html ]
( Dont know that "and this is how you remind me..." part but u can play it like below )
-
Chorus
-----------------
e---------------------------- 
B----------------------------
G----------------------------  
D--6--2---4------------------ 
A--4--2---2---4-------------- 
D-------------2--------------
-----------------
-
yeah, yeah, yeah (eletric)

e---------------------------- 
B----------------------------
G----------------------------  
D--6------4---2-------------- 
A--4--4---2---2-------------- 
D-----2----------------------

: Tabbed by Muska :
: xzibit_xzbt@hotmail.com :
Comments