Nickelback - How You Remind Me Chords & Tabs

 

How You Remind Me Chords & Tabs

Nickelback Chords & Tabs

Version: 2 Type: Tab 0 ratings
1 star 2 stars 3 stars 4 stars 5 stars
comments

How You Remind Me Tab

   
Nickelback, How You Remind Me.
 Tabbed by Greg, MigraneMan7@excite.com.
  
'How You Remind Me' by Nickelback
This is their newest song.  I haven't seen any other guitar tabs for it on any sites, 
so i just decided to try to tab this one by ear.  It uses drop-d tuning.



VERSE 1
(play 2x)
e  3--3--3-3-3--3--3-3-1--1--1-1-1--1--1-1
b  3--3--3-3-3--3--3-3-1--1--1-1-1--1--1-1
g  5--5--5-5-5--5--5-5-3--3--3-3-3--3--3-3
d  5--5--5-5-5--5--5-5-3--3--3-3-3--3--3-3
a  3--3--3-3-3--3--3-3-1--1--1-1-1--1--1-1
d  x--x--x-x-x--x--x-x-x--x--x-x-x--x--x-x
   never made it as a wise man
   i couldn't cut it as a poor man stealing
   i'm tired of living like a blind man
   i'm sick of sight without a sense of feeling

(play 3x)
e  --3-----------------3------------
b  -----------8---------------------
g  5---5----8---8----5---5----------
d  5--------8--------5--------------
a  3--------6--------3--------------
d  3--------6--------3--------------
   and this is how you remind me
   this is how you remind me of what i really am
   this is how you remind me of what i really am

BEGIN CHORUS
(play 2x)
e  -------------------------------
b  -------------------------------
g  5-5-5-5---------3-3-3-3--------
d  5-5-5-5-1-1-1-1-3-3-3-3-3-3-3-3
a  3-3-3-3-1-1-1-1-1-1-1-1-3-3-3-3
d  3-3-3-3-1-1-1-1-1-1-1-1-3-3-3-3
   it's not like you to say sorry
   i was waiting on a different story
   this time i'm mistaken
   for handing you a heart worth breaking

(play 1x)
e  -------------------------------
b  -------------------------------
g  5-5-x-x---------3-3-3-3--------
d  5-5-x-x-1-1-x-x-3-3-3-3-3-3-3-3
a  3-3-x-x-1-1-x-x-1-1-1-1-3-3-3-3
d  3-3-x-x-1-1-x-x-1-1-1-1-3-3-3-3
   and i've been wrong, i've been down
   to the bottom of every bottle

e  -------------------------------
b  -------------------------------
g  5-5-5-5---------3-3-3-3--------
d  5-5-5-5-1-1-1-1-3-3-3-3-3-3-3-3
a  3-3-3-3-1-1-1-1-1-1-1-1-3-3-3-3
d  3-3-3-3-1-1-1-1-1-1-1-1-3-3-3-3
   it's the words in my head
   scream, \"are we having fun yet?\"

(notice change is chord order...)
(play 2x)
e  -------------------------------
b  -------------------------------
g  5-5-5-5---------3-3-3-3--------
d  5-5-5-5-3-3-3-3-3-3-3-3-1-1-1-1
a  3-3-3-3-3-3-3-3-1-1-1-1-1-1-1-1
d  3-3-3-3-3-3-3-3-1-1-1-1-1-1-1-1
   yeah yeah yeah no no
   yeah yeah yeah no no
END OF CHORUS

[ Tab from: http://www.guitartabs.cc/tabs/n/nickelback/how_you_remind_me_tab_ver_2.html ]
VERSE 2
the guitar at the beginning of this verse is barely audible.   
you could get by without having a guitar part for the beginning part, or if you want to, 
just play it the same way as verse 1, but much much softer.  anyway, here's the lyrics for 
verse 2...

it's not like you didn't know that
i said i love you and i swear i still do
and it must have been so bad
cuz living with me must have damn near killed you

(play 2x)
e  --3-----------------3------------
b  -----------8---------------------
g  5---5----8---8----5---5----------
d  5--------8--------5--------------
a  3--------6--------3--------------
d  3--------6--------3--------------
   and this is how you remind me of what i really am
   this is how you remind me of what i really am


CHORUS


VERSE 3
(play 2x)
e  3--3--3-3-3--3--3-3-1--1--1-1-1--1--1-1
b  3--3--3-3-3--3--3-3-1--1--1-1-1--1--1-1
g  5--5--5-5-5--5--5-5-3--3--3-3-3--3--3-3
d  5--5--5-5-5--5--5-5-3--3--3-3-3--3--3-3
a  3--3--3-3-3--3--3-3-1--1--1-1-1--1--1-1
d  x--x--x-x-x--x--x-x-x--x--x-x-x--x--x-x

(play 1x)
e  -------------------
b  -------------------
g  5-----------3------
d  5-----3-----3-----1
a  3-----3-----1-----1
d  3-----3-----1-----1
   i never made it as a wise man
   i couldn't cut it as a poor man stealing

(play 2x)
e  ------------------------
b  ------------------------
g  5-----8-----10----------
d  5-----8-----10----------
a  3-----6-----8 ----------
d  3-----6-----8 ----------
   and this is how you remind me
   this is how you remind me

(play 2x)
e  --3-----------------3------------
b  -----------8---------------------
g  5---5----8---8----5---5----------
d  5--------8--------5--------------
a  3--------6--------3--------------
d  3--------6--------3--------------
   this is how you remind me of what i really am
   this is how you remind me of what i really am


CHORUS
(during this final chorus, do not play anything during the line \"for handing you a heart 
worth breaking\")

(notice: the order of the chords have been switched again...)
(play 4x)
e  -------------------------------
b  -------------------------------
g  5-5-5-5---------3-3-3-3--------
d  5-5-5-5-1-1-1-1-3-3-3-3-3-3-3-3
a  3-3-3-3-1-1-1-1-1-1-1-1-3-3-3-3
d  3-3-3-3-1-1-1-1-1-1-1-1-3-3-3-3
   yeah yeah are we having fun yet?
   yeah yeah are we having fun yet?
   *the words in my head*
   yeah yeah are we having fun yet?
   *the words in my head*
   yeah yeah
   no no
Comments