Nickelback - How You Remind Me Chords & Tabs

 

How You Remind Me Chords & Tabs

Nickelback Chords & Tabs

Version: 5 Type: Bass Tab

How You Remind Me Bass Tab

Nickelback—How You Remind Me

5-string Bass

GDAEB

(0:16)
G-----------------------------------|
D-----------------------------------|
A--3-3-3-3---------1-1-1-1----------|	X 2
E----------1-1-1-1------------------|
B--------------------------4-4-4-4--|

G-----------------------------------|
D----------1-1-1-0------------------|
A--3-3-3-5---------1-1--1-----------|
E-------------------------1-1-1-1---|
B-----------------------------------|

G-----------------------------------|
D----------1-1-1-0------------------|
A--3-3-3-5---------1-1-1-1----------|
E--------------------------1-1-1-1--|
B-----------------------------------|

G--------------------------------------------------------------|
D--------------------------------------------------------------|
A-------------1-1-1-1-------------------------1-1-1-1----------|
E---------------------1-1-1---------------------------1-1-1-1--|
B--1-1---4-4----------------4-1-1-1-1-4-4-4-4------------------|

G---------------------------------------|
D---------------------------------------|
A--3-------1---------3-------1----------|
E-----1-1---------------1-1-------------|
B-------------4-4--4------------4-4--4--|

(1:01)
(1:12)
G--------------------------------------|
D--------------------------------------|
A--3-------1---------3------1----------|	X 4
E-----1-1---------------1-1------------|
B-------------4-4--4----------4-4-4-4--|
[ Tab from: http://www.guitartabs.cc/tabs/n/nickelback/how_you_remind_me_btab_ver_5.html ]
(1:23)
G-----------------------------------|
D----------1-1-1-0------------------|
A--3-3-3-5---------1-1-1-1----------|	X 2
E--------------------------1-1-1-1--|
B-----------------------------------|

G--------------------------------------------------------------|
D--------------------------------------------------------------|
A-------------1-1-1-1-------------------------1-1-1-1----------|
E---------------------1-1-1------------------------------------|
B--1-1---4-4----------------4-1-1-1-1-4-4-4-4---------2-2-2-2--|

G---------------------|
D---------------------|
A--3-------1----------|	X 4
E-----1-1-----4-4--4--|
B---------------------|

Rest 27 seconds
(2:36)
G--12------10-----------------------------|
D------10------8--10----------------------|
A---------------------8-------------------|
E------------------------1-1-1-1-6-6-6-6--|
B-----------------------------------------|

(2:47)
G-----------------------------------|
D----------1-1-1-0------------------|
A--3-3-3-5---------1-1-1-1----------|	X 2
E--------------------------1-1-1-1--|
B-----------------------------------|

G--------------------------------------------------------------|
D--------------------------------------------------------------|
A-------------1-1-1-1-------------------------1-1-1-1----------|
E---------------------1-1-1---------------------------1-1-1-1--|
B--1-1---4-4----------------4-1-1-1-1-4-4-4-4------------------|

G---------------------|
D---------------------|
A----------1----------|	X 2
E---------------------|
B--1--4-4-----1-1--4--|

G---------------------|------------|
D---------------------|------------|
A----------1----------|---------1--|
E---------------------|------------|
B--1--4-4-----1-1--4--|--1--4-4----|