Nickelback - How You Remind Me Chords & Tabs

 

How You Remind Me Chords & Tabs

Nickelback Chords & Tabs

Version: 1 Type: Bass Tab 0 ratings
1 star 2 stars 3 stars 4 stars 5 stars
comments

How You Remind Me Bass Tab

I have work day and night on this I think it is perfect. I hope you all have fun playing it enjoy.
[ Tab from: http://www.guitartabs.cc/tabs/n/nickelback/how_you_remind_me_btab.html ]
Intro:
                                           
G:|---------------------|---------------------|----------------|
D:|--------------------*|--------------------*|55-88-----------|
A:|--3333----------6666*|-3333-6666----------*|33-66-----------|
E:|------1111-6666------|-----------6666-1110-|------6666-1110-|
 
 
                                                  
G:|---------------------|-------------------------|
D:|---------------------|------------------------*|5x
A:|-3333-6666-----------|-3---------------6---6--*|
E:|-----------6666-1110-|------1-----6------------|
 
                                          
G:|------------------|---------------------|----------------|
D:|------------------|--------------------*|55-88-----------|
A:|3-3---------------|-3333-6666----------*|33-66-----------|
E:|---11--66666-1110-|-----------6666-1110-|------6666-1110-|
 
                                                   
G:|--------------------|--------------------------|soft
D:|--------------------|-------------------------*|--*|3x
A:|-3333-6666----------|-3---------------6---6---*|3-*|
E:|-----------6666-1110|-------1-1--6-------------|---|
 

 
              
G:|-soft----|----------------|--------------------|------------| 
D:|--------*|----------------|--------------------|------------| 
A:|3-------*|3----------6666-|3333-6666-----------|3333-6666---| 
E:|--1--6---|--1--6\666------|----------6666-1110-|----------6-| 
                                              Whole note rest E:6            
                                            
G:|----------------|---------------------   |---------------|
D:|55-88-----------|--------------------*4x |---------------|
A:|33-66-----------|-3333-6666----------*   |-3333-6666-----|
E:|------6666-1110-|-----------6666-1110-   |-----------6---| 
Comments