Nickelback - Hollywood Chords & Tabs

 

Hollywood Chords & Tabs

Nickelback Chords & Tabs

Version: 5 Type: Tab 0 ratings
1 star 2 stars 3 stars 4 stars 5 stars
comments

Hollywood Tab

Band:Nickelback
Song:Hollywood
Tuning: Yes u might have guest it Drop D

I Tabbed This Quck Sooo Here it Goes O N pLease Rate My Tab Thank You :-)





[ Tab from: http://www.guitartabs.cc/tabs/n/nickelback/hollywood_tab_ver_5.html ]
|-----------------------------------------------------------|
|-----------------------------------------------------------|
|-----------------------------------------------------------|
|-----------------------------------------------------------|
|-----------------------------------------------------------|
|-//9-99-7-7//12-12-12-12-xx-14-12-14-14-14\\9--------------|




|-----------------------------------------------------------|
|-----------------------------------------------------------|
|-----------------------------------------------------------|
|-----------------------------99-99-9-----------------------|
|-----------------------------99-99-9-----------------------|
|-//9-99-7-7//12-12-12-12-----99-99-9-----------------------|


'We Are Not Slaves To Gods That Dont Exist'
Comments