Nickelback - Hollywood Chords & Tabs

 

Hollywood Chords & Tabs

Nickelback Chords & Tabs

Version: 3 Type: Tab 0 ratings
1 star 2 stars 3 stars 4 stars 5 stars
comments

Hollywood Tab

Band: Nickelback
Song: Hollywood
Album: Silver Side up
Tabbed: Daviddickinson
Tuning: DADGBe

Hi folks and I have I got a cracker for you tab hunters today. This is played
riff throughout with variation for the chorus. Ive also tabbed the palm muted
verse and bridge part. Cheap as Chips
[ Tab from: http://www.guitartabs.cc/tabs/n/nickelback/hollywood_tab_ver_3.html ]
Main Riff: Intro/ Chorus/ during solo 
e-------------------------------------------------------------------------------
B-------------------------------------------------------------------------------
G-------------------------------------------------------------------------------
D--10---8--10---8---x8x---x8x--10---8----3---8--8---5-5-5-----------------------
A--10---8--10---8---x8x---x8x--10---8----3---8--8---5-5-5-----------------------
D--10---8--10---8---x8x--x8x--10---8----3---8--8---5-5-5-----------------------

e-------------------------------------------------------------------------------
B-------------------------------------------------------------------------------
G-------------------------------------------------------------------------------
D-------------------------------------------------------------------------------
A-------------------------------------------------------------------------------
D--10---10---10---8--10---10---10---8---10---10---10---8----3---8--8---5-5-5----
Comments