Nickelback - Hollywood Chords & Tabs

 

Hollywood Chords & Tabs

Nickelback Chords & Tabs

Version: 2 Type: Tab 0 ratings
1 star 2 stars 3 stars 4 stars 5 stars
comments

Hollywood Tab

this is a sweet song and i wanted to show the real version of how to play it.
[ Tab from: http://www.guitartabs.cc/tabs/n/nickelback/hollywood_tab_ver_2.html ]
intro:
-----------------------------1-3-1---3-1-3----------------------
---3b-1----3b-1--xxx---3b-1--------1----------------------------
---5b-3----5b-3--xxx---5b-3-------------------------------------  x2
---5b-3----5b-3--xxx---5b-3-------------------------------------
----------------------------------------------------------------
----------------------------------------------------------------

Verse&Chorus:
-----------------------------1-3-1---3-1-3----------------------
---3-1----3-1-----3-1--------------1----------------------------
---5-3----5-3-----5-3-------------------------------------------  x2
---5-3----5-3-----5-3-------------------------------------------
----------------------------------------------------------------
----------------------------------------------------------------
 
thats all i got so far but more to come i promise.

Peace!
Comments