Nickelback - Hero Chords & Tabs

 

Hero Chords & Tabs

Nickelback Chords & Tabs

Version: 7 Type: Tab 0 ratings
1 star 2 stars 3 stars 4 stars 5 stars
comments

Hero Tab

Artist: Chad Kroger (Nickelback) and Josey Scott (Saliva)
Title: Hero
Album: "Spiderman" Soundtrack

Drop D Tuning   DADGBe

This is my first atempt at Tabbing Something so i thought it shoul be something
worth tabbing. This usualy is played in standard tuning but i find things to work
out a little easier if its in Drop 'D'. it seems to mostly work for me. Good luck
and Keep those Guitars Jammin'

Verse/Beginning
----------------|----------------|----------------|----------------|
----------------|----------------|----------------|----------------|
----------------|----------------|----------------|----------------|
6---6---6---6---|2---2---2---2---|6---6---6---6---|2---2---2---2---|
6---6---6---6---|2---2---2---2---|6---6---6---6---|2---2---2---2---|
6---6---6---6---|2---2---2---2---|6---6---6---6---|2---2---2---2---|

Pre-Chorus
----------------|----------------|----------------|
----------------|----------------|----------------|
----------------|----------------|----------------|
5-5-5-5-5-5-7-7-|7-7-7-7-2-2-2-2-|2-2-2-2-2-2-----|
5-5-5-5-5-5-7-7-|7-7-7-7-2-2-2-2-|2-2-2-2-2-2-----|
5-5-5-5-5-5-7-7-|7-7-7-7-2-2-2-2-|2-2-2-2-2-2-----|
                         X X X X  X X X X X X

Chorus
----------------|----------------|----------------|
----------------|----------------|----------------|
----------------|----------------|----------------|
5-5-5-5-5-5-7-7-|7-7-7-7-9-9-9-9-|9-9-9-9-9-9-7-7-|
5-5-5-5-5-5-7-7-|7-7-7-7-9-9-9-9-|9-9-9-9-9-9-7-7-|
5-5-5-5-5-5-7-7-|7-7-7-7-9-9-9-9-|9-9-9-9-9-9-7-7-|

----------------|----------------|----------------|
----------------|----------------|----------------|
----------------|----------------|----------------|
5-5-5-5-5-5-7-7-|7-7-7-7-2-2-2-2-|2-2-2-2-2-2-----|
5-5-5-5-5-5-7-7-|7-7-7-7-2-2-2-2-|2-2-2-2-2-2-----|
5-5-5-5-5-5-7-7-|7-7-7-7-2-2-2-2-|2-2-2-2-2-2-----|
                         X X X X  X X X X X X
Verse
----------------|----------------|----------------|----------------|
----------------|----------------|----------------|----------------|
----------------|----------------|----------------|----------------|
6---6---6---6---|2---2---2---2---|6---6---6---6---|2---2---2---2---|
6---6---6---6---|2---2---2---2---|6---6---6---6---|2---2---2---2---|
6---6---6---6---|2---2---2---2---|6---6---6---6---|2---2---2---2---|

Pre-Chorus
----------------|----------------|----------------|
----------------|----------------|----------------|
----------------|----------------|----------------|
5-5-5-5-5-5-7-7-|7-7-7-7-2-2-2-2-|2-2-2-2-2-2-----|
5-5-5-5-5-5-7-7-|7-7-7-7-2-2-2-2-|2-2-2-2-2-2-----|
5-5-5-5-5-5-7-7-|7-7-7-7-2-2-2-2-|2-2-2-2-2-2-----|
                         X X X X  X X X X X X
Chorus
----------------|----------------|----------------|
----------------|----------------|----------------|
----------------|----------------|----------------|
5-5-5-5-5-5-7-7-|7-7-7-7-9-9-9-9-|9-9-9-9-9-9-7-7-|
5-5-5-5-5-5-7-7-|7-7-7-7-9-9-9-9-|9-9-9-9-9-9-7-7-|
5-5-5-5-5-5-7-7-|7-7-7-7-9-9-9-9-|9-9-9-9-9-9-7-7-|
[ Tab from: http://www.guitartabs.cc/tabs/n/nickelback/hero_tab_ver_7.html ]
----------------|----------------|----------------|
----------------|----------------|----------------|
----------------|----------------|----------------|
5-5-5-5-5-5-7-7-|7-7-7-7-2-2-2-2-|2-2-2-2-2-2-----|
5-5-5-5-5-5-7-7-|7-7-7-7-2-2-2-2-|2-2-2-2-2-2-----|
5-5-5-5-5-5-7-7-|7-7-7-7-2-2-2-2-|2-2-2-2-2-2-----|

Solo Part
-----------------------------------------------------------
-----------------------------------------------------------
-----------------------------------------------------------
-----------------------------------------------------------
7676765---7676764---2----5---9797975---9797974--2-5-7-9----
-----------------------------------------------------------
^^^^^^^^^^^^^^^^^
Not To Sure About The Solo... But Sounds Good... =)


Clean Fingerpicking-Good Part

All this part it is just the power cords fingerpicked 
with the e string plucked at the high part...
kinda hard to tab this part but if you listen to the song you will get it.

-----5----------|-7--------------|--9-------------|
----------------|----------------|----------------|
----------------|----------------|----------------|
5-----------7---|--------9-------|----------------|
5-----------7---|--------9-------|----------------|
5-----------7---|--------9-------|----------------|

-----5----------|-7--------------|----------------|
----------------|----------------|----------------|
----------------|----------------|----------------|
5-----------7---|--------2-2-2-2-|2-2-2-2-2-2-----|
5-----------7---|--------2-2-2-2-|2-2-2-2-2-2-----|
5-----------7---|--------2-2-2-2-|2-2-2-2-2-2-----|
                         X X X X  X X X X X X

Chorus/End
----------------|----------------|----------------|
----------------|----------------|----------------|
----------------|----------------|----------------|
5-5-5-5-5-5-7-7-|7-7-7-7-9-9-9-9-|9-9-9-9-9-9-7-7-|
5-5-5-5-5-5-7-7-|7-7-7-7-9-9-9-9-|9-9-9-9-9-9-7-7-|
5-5-5-5-5-5-7-7-|7-7-7-7-9-9-9-9-|9-9-9-9-9-9-7-7-|

----------------|----------------|----------------|
----------------|----------------|----------------|
----------------|----------------|----------------|
5-5-5-5-5-5-7-7-|7-7-7-7-2-2-2-2-|2-2-2-2-2-2-2-2-|
5-5-5-5-5-5-7-7-|7-7-7-7-2-2-2-2-|2-2-2-2-2-2-2-2-|
5-5-5-5-5-5-7-7-|7-7-7-7-2-2-2-2-|2-2-2-2-2-2-2-2-|


----------------|----------------|----------------|
----------------|----------------|----------------|
----------------|----------------|----------------|
5-5-5-5-5-5-7-7-|7-7-7-7-9-9-9-9-|9-9-9-9-9-9-7-7-|
5-5-5-5-5-5-7-7-|7-7-7-7-9-9-9-9-|9-9-9-9-9-9-7-7-|
5-5-5-5-5-5-7-7-|7-7-7-7-9-9-9-9-|9-9-9-9-9-9-7-7-|

----------------|----------------|----------------|
----------------|----------------|----------------|
----------------|----------------|----------------|
5-5-5-5-5-5-7-7-|7-7-7-7-9-9-9-9-|9-9-9-9-9-9-7-7-|
5-5-5-5-5-5-7-7-|7-7-7-7-9-9-9-9-|9-9-9-9-9-9-7-7-|
5-5-5-5-5-5-7-7-|7-7-7-7-9-9-9-9-|9-9-9-9-9-9-7-7-|


----------------|----------------|----------------|
----------------|----------------|----------------|
----------------|----------------|----------------|
5-5-5-5-5-5-7-7-|7-7-7-7-2---7---|2-----------9---|
5-5-5-5-5-5-7-7-|7-7-7-7-2---7---|2-----------9---|
5-5-5-5-5-5-7-7-|7-7-7-7-2---7---|2-----------9---|

ANY QUESTIONS COMENTS OR HATE MAIL E-MAIL ME AT
Captin_Obvius@yahoo.com
Comments