Nickelback - Hero Chords & Tabs

 

Hero Chords & Tabs

Nickelback Chords & Tabs

Version: 10 Type: Tab 0 ratings
1 star 2 stars 3 stars 4 stars 5 stars
comments

Hero Tab

Artist: Chad Kroger of Nickelback and Josey Scott of Saliva
Title: Hero
Album: "Spiderman" Soundtrack
Tabbed By: guitarman1507

Standard Tuning EADGBe

This is an easy song and a very good song to learn and to play, just figure out the
strum patterns and follow along measure by measure.

Verse/Beginning
----------------|----------------|----------------|----------------|
----------------|----------------|----------------|----------------|
----------------|----------------|----------------|----------------|
6---6---6---6---|2---2---2---2---|6---6---6---6---|2---2---2---2---|
6---6---6---6---|2---2---2---2---|6---6---6---6---|2---2---2---2---|
4---4---4---4---|0---0---0---0---|4---4---4---4---|0---0---0---0---|

Pre-Chorus
----------------|----------------|----------------|
----------------|----------------|----------------|
----------------|----------------|----------------|
5-5-5-5-5-5-7-7-|7-7-7-7-2-2-2-2-|2-2-2-2-2-2-----|
5-5-5-5-5-5-7-7-|7-7-7-7-2-2-2-2-|2-2-2-2-2-2-----|
3-3-3-3-3-3-5-5-|5-5-5-5-0-0-0-0-|0-0-0-0-0-0-----|
                       

Chorus
----------------|----------------|----------------|
----------------|----------------|----------------|
----------------|----------------|----------------|
5-5-5-5-5-5-7-7-|7-7-7-7-9-9-9-9-|9-9-9-9-9-9-7-7-|
5-5-5-5-5-5-7-7-|7-7-7-7-9-9-9-9-|9-9-9-9-9-9-7-7-|
3-3-3-3-3-3-5-5-|5-5-5-5-7-7-7-7-|7-7-7-7-7-7-5-5-|

----------------|----------------|----------------|
----------------|----------------|----------------|
----------------|----------------|----------------|
5-5-5-5-5-5-7-7-|7-7-7-7-2-2-2-2-|2-2-2-2-2-2-----|
5-5-5-5-5-5-7-7-|7-7-7-7-2-2-2-2-|2-2-2-2-2-2-----|
3-3-3-3-3-3-5-5-|5-5-5-5-0-0-0-0-|0-0-0-0-0-0-----|
                       
Verse
----------------|----------------|----------------|----------------|
----------------|----------------|----------------|----------------|
----------------|----------------|----------------|----------------|
6---6---6---6---|2---2---2---2---|6---6---6---6---|2---2---2---2---|
6---6---6---6---|2---2---2---2---|6---6---6---6---|2---2---2---2---|
4---4---4---4---|0---0---0---0---|4---4---4---4---|0---0---0---0---|








Pre-Chorus
----------------|----------------|----------------|
----------------|----------------|----------------|
----------------|----------------|----------------|
5-5-5-5-5-5-7-7-|7-7-7-7-2-2-2-2-|2-2-2-2-2-2-----|
5-5-5-5-5-5-7-7-|7-7-7-7-2-2-2-2-|2-2-2-2-2-2-----|
3-3-3-3-3-3-3-3-|3-3-3-3-0-0-0-0-|0-0-0-0-0-0-----|

Chorus
----------------|----------------|----------------|
----------------|----------------|----------------|
----------------|----------------|----------------|
5-5-5-5-5-5-7-7-|7-7-7-7-9-9-9-9-|9-9-9-9-9-9-7-7-|
5-5-5-5-5-5-7-7-|7-7-7-7-9-9-9-9-|9-9-9-9-9-9-7-7-|
3-3-3-3-3-3-5-5-|5-5-5-5-7-7-7-7-|7-7-7-7-7-7-5-5-|

----------------|----------------|----------------|
----------------|----------------|----------------|
----------------|----------------|----------------|
5-5-5-5-5-5-7-7-|7-7-7-7-2-2-2-2-|2-2-2-2-2-2-2-2-|
5-5-5-5-5-5-7-7-|7-7-7-7-2-2-2-2-|2-2-2-2-2-2-2-2-|
3-3-3-3-3-3-5-5-|5-5-5-5-0-0-0-0-|0-0-0-0-0-0-0-0-|
[ Tab from: http://www.guitartabs.cc/tabs/n/nickelback/hero_tab_ver_10.html ]
|--------------------------------------------------------------------|
|--------------------------------------------------------------------|
|--------------------------------------------------------------------|
|--------------------------------------------------------------------|
|---5454542-------5454540-------2-----4----9898985------9898984------|
|--------------------------------------------------------------------|

|--------------------------------------------------------|
|--------------------------------------------------------|
|--------------------------------------------------------|
|--------------------------------------------------------|
|----------2------5---------7-------------9--------------|
|--------------------------------------------------------|




Clean Finger picking

All this part below is just the power cords finger picked 
Using the high e string plucked at the high part...  can not 
Really get this part but you will understand when you listen to the song.

-----5----------|-7--------------|--9-------------|
----------------|----------------|----------------|
----------------|----------------|----------------|
5-----------7---|--------9-------|----------------|
5-----------7---|--------9-------|----------------|
3-----------5---|--------7-------|----------------|





-----5----------|-7--------------|----------------|
----------------|----------------|----------------|
----------------|----------------|----------------|
5-----------7---|--------2-2-2-2-|2-2-2-2-2-2-----|
5-----------7---|--------2-2-2-2-|2-2-2-2-2-2-----|
3-----------5---|--------0-0-0-0-|0-0-0-0-0-0-----|
                       



End of Chorus
----------------|----------------|----------------|
----------------|----------------|----------------|
----------------|----------------|----------------|
5-5-5-5-5-5-7-7-|7-7-7-7-9-9-9-9-|9-9-9-9-9-9-7-7-|
5-5-5-5-5-5-7-7-|7-7-7-7-9-9-9-9-|9-9-9-9-9-9-7-7-|
3-3-3-3-3-3-5-5-|5-5-5-5-7-7-7-7-|7-7-7-7-7-7-5-5-|

----------------|----------------|----------------|
----------------|----------------|----------------|
----------------|----------------|----------------|
5-5-5-5-5-5-7-7-|7-7-7-7-2-2-2-2-|2-2-2-2-2-2-2-2-|
5-5-5-5-5-5-7-7-|7-7-7-7-2-2-2-2-|2-2-2-2-2-2-2-2-|
3-3-3-3-3-3-5-5-|5-5-5-5-0-0-0-0-|0-0-0-0-0-0-0-0-|

----------------|----------------|----------------|
----------------|----------------|----------------|
----------------|----------------|----------------|
5-5-5-5-5-5-7-7-|7-7-7-7-9-9-9-9-|9-9-9-9-9-9-7-7-|
5-5-5-5-5-5-7-7-|7-7-7-7-9-9-9-9-|9-9-9-9-9-9-7-7-|
3-3-3-3-3-3-5-5-|5-5-5-5-7-7-7-7-|7-7-7-7-7-7-5-5-|

----------------|----------------|----------------|
----------------|----------------|----------------|
----------------|----------------|----------------|
5-5-5-5-5-5-7-7-|7-7-7-7-9-9-9-9-|9-9-9-9-9-9-7-7-|
5-5-5-5-5-5-7-7-|7-7-7-7-9-9-9-9-|9-9-9-9-9-9-7-7-|
3-3-3-3-3-3-5-5-|5-5-5-5-7-7-7-7-|7-7-7-7-7-7-5-5-|

----------------|----------------|----------------|
----------------|----------------|----------------|
----------------|----------------|----------------|
5-5-5-5-5-5-7-7-|7-7-7-7-2---7---|2-----------9---|
5-5-5-5-5-5-7-7-|7-7-7-7-2---7---|2-----------9---|
3-3-3-3-3-3-5-5-|5-5-5-5-0---5---|0-----------7---|
Comments