Nickelback - Fly Chords & Tabs

 

Fly Chords & Tabs

Nickelback Chords & Tabs

Version: 1 Type: Tab 0 ratings
1 star 2 stars 3 stars 4 stars 5 stars
comments

Fly Tab

   
Standard Tuning
This is the first tab for this song so I hope you like it.
Please add your comments.

Riff a:
      (Bb-)          (Db)         (a)          (B)
-1-X-1-1-1-1--4-X-4-4-4-4--0-X-0-0-0-0--2-X-2-2-2-2---------
-2-X-2-2-2-2--6-X-6-6-6-6--2-X-2-2-2-2--4-X-4-4-4-4---------
-3-X-3-3-3-3--6-X-6-6-6-6--2-X-2-2-2-2--4-X-4-4-4-4---------
-3-X-3-3-3-3--6-X-6-6-6-6--2-X-2-2-2-2--4-X-4-4-4-4---------
------------------------------------------------------------
------------------------------------------------------------

      (Bb-)          (Db)         (a)          (B)
-1-X-1-1-1-1--4-X-4-4-4-4--0-X-0-0-0-0--2-X-2-2-2-2---------
-2-X-2-2-2-2--6-X-6-6-6-6--2-X-2-2-2-2--4-X-4-4-4-4---------
-3-X-3-3-3-3--6-X-6-6-6-6--2-X-2-2-2-2--4-X-4-4-4-4---------
-3-X-3-3-3-3--6-X-6-6-6-6--2-X-2-2-2-2--4-X-4-4-4-4---------
------------------------------------------------------------
------------------------------------------------------------

      (Bb-)          (Db)         (a)          (B)
-1-X-1-1-1-1--4-X-4-4-4-4--0-X-0-0-0-0--2-------------------
-2-X-2-2-2-2--6-X-6-6-6-6--2-X-2-2-2-2--4-------------------
-3-X-3-3-3-3--6-X-6-6-6-6--2-X-2-2-2-2--4-------------------
-3-X-3-3-3-3--6-X-6-6-6-6--2-X-2-2-2-2--4-(hold)------------
------------------------------------------------------------
------------------------------------------------------------

Riff B:
    (Gb)            (Ab)            (Gb)          (Ab)
------------------------------------------------------------
------------------------------------------------------------
------------------------------------------------------------
------------------------------------------------------------
4--4-4--4-4-4--6--6-6--6-6-6--4--4-4--4-4-4--6--6-6--6-6-6--
2--2-2--2-2-2--4--4-4--4-4-4--2--2-2--2-2-2--4--4-4--4-4-4--

       (Gb)           (Ab)           (a)     (B)
------------------------------------------------------------
------------------------------------------------------------
------------------------------------------------------------
------------------------------------------------------------
-4--4-4--4-4-4--6--6-6--6-6-6--7--7-7--7-7-7--9-------------
-2--2-2--2-2-2--4--4-4--4-4-4--5--5-5--5-5-5--7-(hold)------


Riff c:
       (Gb)           (Ab)         (Gb)          (Ab)
------------------------------------------------------------
------------------------------------------------------------
------------------------------------------------------------
------------------------------------------------------------
4--4-4--4-4-4--6--6-6--6-6-6--4--4-4--4-4-4--6--6-6--6-6-6--
2--2-2--2-2-2--4--4-4--4-4-4--2--2-2--2-2-2--4--4-4--4-4-4--

      (Gb)            (Ab            (a)            (B)
------------------------------------------------------------
------------------------------------------------------------
------------------------------------------------------------
------------------------------------------------------------
-4--4-4--4-4-4--6--6-6--6-6-6--7--7-7--7-7-7--9--9-9--9-9-9-
-2--2-2--2-2-2--4--4-4--4-4-4--5--5-5--5-5-5--7--7-7--7-7-7-
[ Tab from: http://www.guitartabs.cc/tabs/n/nickelback/fly_tab.html ]
------------------------------------------------------------
------------------------------------------------------------
------------------------------------------------------------
------------------------------------------------------------
-9-9-9-9-9--------------------------------------------------
-7-7-7-7-7--------------------------------------------------


Riff d:

      (Gb)            (Ab)          (a)            (B)
------------------------------------------------------------
------------------------------------------------------------
------------------------------------------------------------
------------------------------------------------------------
-4--4-4--4-4-4--6--6-6--6-6-6--7--7-7--7-7-7--9--9-9--9-9-9-
-2--2-2--2-2-2--4--4-4--4-4-4--5--5-5--5-5-5--7--7-7--7-7-7-

      (Gb)            (Ab)          (a)            (B)
------------------------------------------------------------
------------------------------------------------------------
------------------------------------------------------------
------------------------------------------------------------
-4--4-4--4-4-4--6--6-6--6-6-6--7--7-7--7-7-7--9--9-9--9-9-9-
-2--2-2--2-2-2--4--4-4--4-4-4--5--5-5--5-5-5--7--7-7--7-7-7-

      (Gb)            (Ab)          (a)            (B)
------------------------------------------------------------
------------------------------------------------------------
------------------------------------------------------------
------------------------------------------------------------
-4--4-4--4-4-4--6--6-6--6-6-6--7--7-7--7-7-7--9--9-9--9-9-9-
-2--2-2--2-2-2--4--4-4--4-4-4--5--5-5--5-5-5--7--7-7--7-7-7-

      (Gb)            (Ab)          (a)      (B)
------------------------------------------------------------
------------------------------------------------------------
------------------------------------------------------------
------------------------------------------------------------
-4--4-4--4-4-4--6--6-6--6-6-6--7--7-7--7-7-7--9-------------
-2--2-2--2-2-2--4--4-4--4-4-4--5--5-5--5-5-5--7-(hold)------


Order:
Riff a - 1x
Riff B - 1x
Riff a - 1x
Riff c - 1x
Riff d - 1x
Riff a - 1x
Riff c - 1x
Riff d - 1x

Lyrics:

Father tell me something
Where do bad men go when they die?
Mother says you'll go there but wings for her and
I and I don't mind
'Cause I have always wanted to learn to

Fly learn to
Fly learn to
Fly learn to
Fly

Brother tell me something
If I take this am I going to die?
And he says no so then I figure what the hell I'll
Try 'cause it's my life
So light the match and you and I will

Fly learn to
Fly learn to
Fly learn to
Fly

On my hands and knees I've crawled eternity to beg forgiveness
Someday I'll be there I swear to you God as my witness
For all the trusts I've broke and let justice know it's just that easy
'Cause I'm a liar
I've conspired
I'm a liar

And father tell your son
It's not your gun and bloody hands
Don't hide behind locked doors
In dresser drawers those bullets wait to

Fly wait to
Fly wait to
Fly wait to
Fly

On my hands and knees I've crawled eternity to beg forgiveness
Someday I'll be there I swear to you God as my witness
For all the trusts I've broke and let justice know it's just that easy
'Cause I'm a liar
I've conspired
I'm a liar
Comments