Nickelback - Flat On The Floor Chords & Tabs

 

Flat On The Floor Chords & Tabs

Nickelback Chords & Tabs

Version: 6 Type: Tab

Flat On The Floor Tab

This is a very fast song so you must play all very fast.
Here are two electronic guitars.

Intro:
Elec. Gtr. 1
D/-------------------------------------------------------------------|
A/-------------------------------------------------------------------|
F/-------------------------------------------------------------------|
C/-------------------------------------------------------------------|
G/--2--2--0--2--5--5--2--5--7-----5--7--------5--7-------------------|
C/--2--2--0--2--5--5--2--5--7--7--5--7--8--7--5--7-------------------|

D/-------------------------------------------------------------------|
A/-------------------------------------------------------------------|
F/-------------------------------------------------------------------|
C/-------------------------------------------------------------------|
G/--2--2--0--2--5--5--2--5--7--7--7--0----0--0--5--------------------|
C/--2--2--0--2--5--5--2--5--7--7--7--0----0--0--5--------------------|
Play this two times!!

Verse:
Elec. Gtr. 1
D/-------------------------------------------------------------------|
A/-------------------------------------------------------------------|
F/-------------------------------------------------------------------|
C/-------------------------------------------------------------------|
G/--2--2-----------------2----2--2-----------------------------------|
C/--2--2-----------------2----2--2-----------------------------------|
    Not like I need to depend up on anyone....

D/-------------------------------------------------------------------|
A/-------------------------------------------------------------------|
F/-------------------------------------------------------------------|
C/-------------------------------------------------------------------|
G/--2--2--2------------------12----12--12--12--5----7--5-------------|
C/--2--2--2------------------12----12--12--12--5----7--5-------------|
    since I can see the lack of need for me to be here at all.

D/-------------------------------------------------------------------|
A/-------------------------------------------------------------------|
F/-------------------------------------------------------------------|
C/-------------------------------------------------------------------|
G/--2--2--2-------------2----2--2------------------------------------|
C/--2--2--2-------------2----2--2------------------------------------|
          One more the an_______them for the know it all

D/-------------------------------------------------------------------|
A/-------------------------------------------------------------------|
F/-------------------------------------------------------------------|
C/-------------------------------------------------------------------|
G/--2--2--2-----------------5-----------5--5--5----------------------|
C/--2--2--2-----------------5-----------5--5--5--/12----------12\----|
       I won't be standing up for long. I better learn how to crawl

Chorus:
Elec. Gtr. 1
D/-------------------------------------------------------------------|
A/-------------------------------------------------------------------|
F/-------------------------------------------------------------------|
C/-------------------------------------------------------------------|
G/--2--2--0--2--5--5--2--5--7-----5--7--------5--7-------------------|
C/--2--2--0--2--5--5--2--5--7--7--5--7--8--7--5--7-------------------|

D/-------------------------------------------------------------------|
A/-------------------------------------------------------------------|
F/-------------------------------------------------------------------|
C/-------------------------------------------------------------------|
G/--2--2--0--2--5--5--2--5--7--7--7--0----0--0--5--------------------|
C/--2--2--0--2--5--5--2--5--7--7--7--0----0--0--5--------------------|
The chorus is like the intro. You play this two times.

Verse 2:
Play it as the first verse.

Chorus:
Play it as the first chorus.
[ Tab from: http://www.guitartabs.cc/tabs/n/nickelback/flat_on_the_floor_tab_ver_6.html ]
Solo:
Elec. Gtr. 1 & 2
D/-------------------------------------------------------------------|
A/-------------------------------------------------------------------|
F/-------------------------------------------------------------------|
C/--------------0--0--0--------------0--0--0-------------------------|
G/--2--2--*--*--5--5--5--2-----2--2--5--5--5--2----------------------|
C/--2--2--*--*-----------2-----2--2-----------2----------------------|

D/-------------------------------------------------------------------|
A/-------------------------------------------------------------------|
F/-------------------------------------------------------------------|
C/--------0--0--0---------------------------------------0--0--0------|
G/--2--2--5--5--5--5---------(5)\--------0--------2--2--5--5--5------|
C/--2--2-----------5---------(5)\--------0--------2--2---------------|
                      let ring!!!
                   ------------------------------->

D/--------------------------------------------------------------------|
A/--------------------------------------------------------------------|
F/--------------------------------------------------------------------|
C/--------------0--0--0--------------0--0--0--------------------------|
G/--2----2--2---5--5--5--2-----2--2--5--5--5--5\--------(5)--------0--|
C/--2----2--2------------2-----2--2-----------5\--------(5)--------0--|

Bridge:
Elec. Gtr. 1
First Chad come in with the text then you play this.
D/--------------------------------------------------------------------|
A/--------------------------------------------------------------------|
F/--------------------------------------------------------------------|
C/--------------------------------------------------------------------|
G/--------------------------------------------------------------------|
C/--2--2--2--2--2--2--2--2--2--2--2--2--2--2--2--2--2-----------------|
    Three to go and I'm for getting all that I've ever known.

D/--------------------------------------------------------------------|
A/--------------------------------------------------------------------|
F/--------------------------------------------------------------------|
C/--------------------------------------------------------------------|
G/--------------------------------------------------------------------|
C/--2--2--2--2--2--2--2--2--2--2--2--2--2--2--2--2--------------------|
    I want be standind up for long. I better learn how i crawl.

D/--------------------------------------------------------------------|
A/--------------------------------------------------------------------|
F/--------------------------------------------------------------------|
C/--------------------------------------------------------------------|
G/--------------------------------------------------------------------|
C/--2--2--2--2--2--2--2--2--2-----------------------------------------|

When you played this you must play the intro. But only one time not two times.

Verse 3:
Elec. Gtr. 1
First Chad come in with the text again. And then you play this.
D/--------------------------------------------------------------------|
A/--------------------------------------------------------------------|
F/--------------------------------------------------------------------|
C/--------------------------------------------------------------------|
G/--12----12--12--12--5----7--5---------------------------------------|
C/--12----12--12--12--5----7--5---------------------------------------|
    Then you play the verse as the first again.

Chorus:
Play it as the first but here you have to play it four times not two.

Outro:
D/-------------------------------------------------------------------------|
A/-------------------------------------------------------------------------|
F/-----------4----4--4-----4--4--4---------------------------------4--4--4-|
C/-----------2----2--2-----2--2--2----12----12--12--12-------------2--2--2-|
G/--2--2-----2----2--2-----2--2--2----12----12--12--12--5----7--5--2--2--2-|
C/--2--2-----2----2--2-----2--2--2----12----12--12--12--5----7--5--2--2--2-|