Nickelback - Flat On The Floor Chords & Tabs

 

Flat On The Floor Chords & Tabs

Nickelback Chords & Tabs

Version: 5 Type: Tab

Flat On The Floor Tab




|1. FLAT ON THE FLOOR|
DROP D AND DOWN A WHOLE STEP: CGCFAD
FAST ROCK: 184

INTRO
|---------------------------------------|
|---------------------------------------|REPEAT 2X
|---------------------------------------|
|---------------------------------------|
|-22025525/77578757--220255257770--005--|
|-22025525/77578757--220255257770--005--|

VERSE
|--------------------------------|
|--------------------------------|
|--------------------------------|
|--------------------------------|
|-22--2-22-222-12-12-12-12-55-7--|
|-22--2-22-222-12-12-12-12-55-7--|
[ Tab from: http://www.guitartabs.cc/tabs/n/nickelback/flat_on_the_floor_tab_ver_5.html ]
SOLO PART
|-----------------------------|------|-------|
|-----------------------------|--1ST-|--2ND--|
|-----------------------------|--TIME|--TIME-|
|-------000------000------000-|------|-------|
|-22-XX-555-0-22-555-0-22-555-|5--0--|-5--7--|
|-22-XX-----0-22-----0-22-----|5--0--|-5--7--|

BRIDGE
|-XXXXX--------------------------------------------------------------|
|-------XXXXXXXXXXXXXX-----------------------------------------------|
|--------------------------------------------------------------------|
|--------------------------------------------------------------------|
|-----------------------------------------------------------------2--|
|----------------------X-2222222222222222222222222222222222222222-2--|
                      PM|****************************************|

ENDING
|----------------------------------------|
|----------------------------------------|
|------4-44--444--------------------444--|
|------2-22--222-12-12-12-12--------222--|
|-2-2--2-22--222-12-12-12-12-5-7-5--222--|
|-2-2--2-22--222-12-12-12-12-5-7-5--222--|