Nickelback - Flat On The Floor Chords & Tabs

 

Flat On The Floor Chords & Tabs

Nickelback Chords & Tabs

Version: 3 Type: Tab 0 ratings
1 star 2 stars 3 stars 4 stars 5 stars
comments

Flat On The Floor Tab

   
Tuning: Drop C - down one whole step w/ Drop D (C,G,C,F,A,D)


|------|-----------------------------------------|
|------|-----------------------------------------|
|------|-----------------------------------------|
|------|-----------------------------------------|
|------|-2-2-0-2---5-5-2-5---7-7-5-7---8-7-5-7---|
|--15/-|-2-2-0-2--5-5-2-5---7-7-5-7---8-7-5-7---|

|-------------------------------------------|
|-------------------------------------------|
|-------------------------------------------|
|-------------------------------------------|
|---2-2-0-2---5-5-2-5---7-7-7-7---0--0-0-0--|
|---2-2-0-2--5-5-2-5---7-7-7-7---0-0-0-0--|

Verse
|-------------------------------------|
|---------------------------3---------|
|---------------------------2---------|
|---------------------------0---5-5h7-|
|--2-2-2---2-2-2---2-2-2---0---5-5h7-|
|--2-2-2---2-2-2---2-2-2---0---5-5h7-|
[ Tab from: http://www.guitartabs.cc/tabs/n/nickelback/flat_on_the_floor_tab_ver_3.html ]
Chorus
|-----------------------------------------|
|-----------------------------------------|
|-----------------------------------------|
|-----------------------------------------|
|--2-2-0-2---5-5-2-5---7-7-5-7---8-7-5-7--|
|--2-2-0-2--5-5-2-5---7-7-5-7---8-7-5-7--|

|------------------------------------------|
|------------------------------------------|
|------------------------------------------|
|------------------------------------------|
|--2-2-0-2---5-5-2-5---7-7-7-7---0--0-0-0--|
|--2-2-0-2--5-5-2-5---7-7-7-7---0-0-0-0--|

Bridge
|-----------------------------------------------------0---|
|-----------------------------------------------------2---|
|----------7-7-7-----------7-7-7-----------7-7-7------3---|
|----------x-x-x-----------x-x-x-----------x-x-x------0---|
|--2-2-2-5-5-5--2-2-2-5-5-5--2-2-2-5-5-5--5-0---|
|--2-2-2----------2-2-2----------2-2-2----------5-0---|

|------|
|------|
|------|
|--12--|
|------|
|------|

Outro 
|---------------------------0-----------|
|--5-5-5---5--5-5---5-5-5---2----5-5-5--|
|--4-4-4---4-4-4---4-4-4---3----4-4-4--|
|--2-2-2---2-2-2---2-2-2---05--2-2-2--|
|--2-2-2---2-2-2---2-2-2---05--2-2-2--|
|--2-2-2---2-2-2---2-2-2---0-5--2-2-2--|
Comments