Nickelback - Figured You Out Chords & Tabs

 

Figured You Out Chords & Tabs

Nickelback Chords & Tabs

Version: 5 Type: Tab 0 ratings
1 star 2 stars 3 stars 4 stars 5 stars
comments

Figured You Out Tab

Figured you out
Nickelback
Tabbed by: Mariano Arnaiz
Anything to: marianoarnaiz@hotmail.com

Tunning: Both guitar drop in D: DADGBE

Note: never play in the first line any the verse

Verse 1

"I like your pants around your feet" (no music,then)

Guitar 1

e------
B------
G------
D------
A—x\\--
D------

Guitar 2: scraching the 6th string.

Guitar 1 (repeat during all the verse)(reapet each chord until you hear the change)

e--x-x-x---x-x-x---x-x-x---x-x--
B--x-x-x---x-x-x---x-x-x---x-x--
G--5-5-5---x-x-x---x-x-x---5-5--
D—-5-5-5---3-3-3---1-1-1---5-5--
A--3-3-3---3-3-3---1-1-1---3-3--
D--x-x-x---3-3-3---1-1-1---x-x—-

Guitar 2 (repeat during all the verse)(repeat each chord until you hear the
change)(play with harmonics if you want to)

e--x--x--x---x-x-x---x-x-x---x--x---
B--x--x--x---x-x-x---x-x-x---x--x---
G--10-10-10--x-x-x---x-x-x---10-10--
D--10-10-10--8-8-8---6-6-6---10-10--
A--8--8--8---8-8-8---6-6-6---8--8---
D--x--x--x---8-8-8---6-6-6---x--x---


I like your pants around your feet
And I like the dirt that's on your knees
And I like the way you say please
While you're looking up at me
You're like my favorite damn disease

Verse 2 (same as verse 1)

And I love the places that we go
And I love the people that you know
And I love the way you can't say "No"
Too many long lines in a row
I love the powder on your nose



Chorus 1 (x2)

Guitar 1

And now I know who you are It wasn't that hard Just to figure you...
e--x-x-x--------------x-x-x--------------x-x-x--
B--x-x-x--------------x-x-x--------------x-x-x--
G--5-5-5--------------3-3-3--------------x-x-x--
D--5-5-5--------------3-3-3--------------3-3-3--
A--3-3-3--------------1-1-1--------------3-3-3--
D--x-x-x--------------x-x-x--------------3-3-3—

..out  Now   I   did  , you  wonder why
e-x-------------------------------------
B-x-------------------------------------
G-x---5-5-5-5/9b(10)v--5-5-5-5/9b(10)v-- 
D-1---5-5-5-5/9b(10)v—-5-5-5-5/9b(10)v--
A-1---3-3-3-3/7b(8)v---3-3-3-3/7b(8)v---
D-1-------------------------------------

Guitar 2

And now I know who you are It wasn't that hard Just to figure you...
e--x--x--x------------x-x-x--------------x-x-x--
B--x--x--x------------x-x-x--------------x-x-x--
G--10-10-10-----------8-8-8--------------x-x-x--
D--10-10-10-----------8-8-8--------------8-8-8--
A--8--8--8------------6-6-6--------------8-8-8--
D--x--x--x------------x-x-x--------------8-8-8--

..out Now   I   did  , you  wonder why
e-x-------------------------------------
B-x-------------------------------------
G-x---10-10-10-x/10bv--10-10-10-x/10bv--  
D-6---10-10-10-x/10bv—-10-10-10-x/10bv--
A-6---10-10-10-x/10bv--10-10-10-x/10bv--
D-6-------------------------------------

Verse 3 (same as verse 1)

I like the freckles on your chest
And I like the way you like me best
And I like the way you're not impressed
While you put me to the test

Verse 4 (keep pn playing sth same chords)

I like the white stains on your dress
I love the way you pass the check
And I love the good times that you wreck
And I love your lack of self respect 
While you're passed out on the deck
I love my hands around your neck

Chorus 2 

Guitar 1

And now I know who you are It wasn't that hard Just to figure you...
e--x-x-x--------------x-x-x--------------x-x-x--
B--x-x-x--------------x-x-x--------------x-x-x--
G--5-5-5--------------3-3-3--------------x-x-x--
D--5-5-5--------------3-3-3--------------3-3-3--
A--3-3-3--------------1-1-1--------------3-3-3--
D--x-x-x--------------x-x-x--------------3-3-3—
[ Tab from: http://www.guitartabs.cc/tabs/n/nickelback/figured_you_out_tab_ver_5.html ]
..out  Now   I   did  , you  wonder why 
e-x-------------------------------------
B-x-------------------------------------
G-x---5-5-5-5/9b(10)v--5-5-5-5/9b(10)v--
D-1---5-5-5-5/9b(10)v—-5-5-5-5/9b(10)v--
A-1---3-3-3-3/7b(8)v---3-3-3-3/7b(8)v---
D-1-------------------------------------

  Why not before, you never tried
  Gone for good, and this is it
e-----------------------------------
B-----------------------------------
G-5-5-5-5/9b(10)v--5-5-5-5/9b(10)v--
D-5-5-5-5/9b(10)v—-5-5-5-5/9b(10)v--
A-3-3-3-3/7b(8)v---3-3-3-3/7b(8)v---
D-----------------------------------


And now I know who you are It wasn't that hard Just to figure you...
e--x-x-x--------------x-x-x--------------x-x-x--
B--x-x-x--------------x-x-x--------------x-x-x--
G--5-5-5--------------3-3-3--------------x-x-x--
D--5-5-5--------------3-3-3--------------3-3-3--
A--3-3-3--------------1-1-1--------------3-3-3--
D--x-x-x--------------x-x-x--------------3-3-3—

..out  Now   I   did  , you  wonder why
e-x-------------------------------------
B-x-------------------------------------
G-x---5-5-5-5/9b(10)v--5-5-5-5/9b(10)v--
D-1---5-5-5-5/9b(10)v—-5-5-5-5/9b(10)v--
A-1---3-3-3-3/7b(8)v---3-3-3-3/7b(8)v---
D-1-------------------------------------


Guitar 2

And now I know who you are It wasn't that hard Just to figure you...
e--x--x--x------------x-x-x--------------x-x-x--
B--x--x--x------------x-x-x--------------x-x-x--
G--10-10-10-----------8-8-8--------------x-x-x--
D--10-10-10-----------8-8-8--------------8-8-8--
A--8--8--8------------6-6-6--------------8-8-8--
D--x--x--x------------x-x-x--------------8-8-8--

..out Now   I   did  , you  wonder why
e-x-------------------------------------
B-x-------------------------------------
G-x---10-10-10-x/10bv--10-10-10-x/10bv--
D-6---10-10-10-x/10bv—-10-10-10-x/10bv--
A-6---10-10-10-x/10bv--10-10-10-x/10bv--
D-6-------------------------------------

 Why not before, you never tried
 Gone for good, and this is it
e-----------------------------------
B-----------------------------------
G-10-10-10-x/10bv--10-10-10-x/10bv-- x2
D-10-10-10-x/10bv—-10-10-10-x/10bv--
A-10-10-10-x/10bv--10-10-10-x/10bv--
D-----------------------------------

Interlude

Guitar 1
I                 II
e-x-x-x-h-x--     e-x-x-x----
B-x-x-x-h-x--     B-x-x-x----
G-x-x-x-h-x—-     G-x-x x-5—- 
D-1-1-1-h—3--     D-3-3-3-5--
A-1-1-1-h-3--     A-3-3-3-3--
D-1-1-1-h-3--     D-3-3-3----


Guitar 2
I                 II
e-x-x-x-h-x--     e-x-x-x-----
B-x-x-x-h-x--     B-x-x-x-----
G-x-x-x-h-x—-     G-x-x x-10-- 
D-6-6-6-h—8--     D-8-8-8-10--
A-6-6-6-h-8--     A-8-8-8-8---
D-6-6-6-h-8--     D-8-8-8-----

Play: I x4 II x6 I x4


Verse 5 (play as the verse but make some full stops between the differnt chords)

I like your pants around your feet
And I like the dirt that's on your knees
And I like the way you still say please
While you're looking up at me
You're like my favorite damn disease

Verse 6 (same as verse 1)

And I hate the places that we go
And I hate the people that you know
And I hate the way you can't say "No"
Too many long lines in a row
I hate the powder on your nose

Chorus 3 (same as chorus 2) 


Outro

Guitar 1
I                 II
e-x-x-x-h-x--     e-x-x-x----
B-x-x-x-h-x--     B-x-x-x----
G-x-x-x-h-x—-     G-x-x x-5—- 
D-1-1-1-h—3--     D-3-3-3-5--
A-1-1-1-h-3--     A-3-3-3-3--
D-1-1-1-h-3--     D-3-3-3----


Guitar 2
I                 II
e-x-x-x-h-x--     e-x-x-x-----
B-x-x-x-h-x--     B-x-x-x-----
G-x-x-x-h-x—-     G-x-x x-10-- 
D-6-6-6-h—8--     D-8-8-8-10--
A-6-6-6-h-8--     A-8-8-8-8---
D-6-6-6-h-8--     D-8-8-8-----

Play: I x3 II x1
Comments